AllChordsTabs.com

Marty Friedman - Rock Box (First Version) Chords and Tabs


Artists:
Chords and Tabs » M » Marty Friedman - Rock Box (First Version)

Marty Friedman - Rock Box (First Version)

Marty Friedman - Rock Box (First Version) Chords / Tabs

Marty Friedman - Rock Box First Version: chords and tabs for the song. Watch chords and tablatures for all songs of the singer (group) Marty Friedman. Other chords and tabs for the "Rock Box" can find at the bottom of the page.

main theme
E------------4--5p4--------------5--8--||-----4--5--5--4h5p4------------
B---------5----------5--------5-----8--||---------------------7--5------
G------4----------------4--6--------9--||-------------------------------
D--------------------------------------||-------------------------------
A--------------------------------------||-------------------------------
E---0----------------------------------||--0----------------------------



E--------------------r--4--5--5--4h5p4---------------------||--7--------
B---3--5/7--3--------e------------------7--5--3--5--7--5---||-----------
G--------------4--4--s------------------------------------*||-----------
D--------------------t------------------------------------*||-----------
A----------------------------------------------------------||-----------
E----------------------------------------------------------||-----------


chorus                                      fill 1
E--------------8--10p8--7-----8-----10------12---12---12h16p12------
B---8---------8-----------8-------------8--------15^--15^----------------
G-----7-----9-------------------8-----------------------------------------
D-----------------------------------------------------------------------
A-----------------------------------------------------------------------
E-----------------------------------------------------------------------



E----------12---------12------------------------------------------------
B---12h15------12h15------12h15p12--------------------------------------
G-----------------------------------15--14--12------14------13h14-------
D-----------------------------------------------14------14--------------
A-----------------------------------------------------------------------
E-----------------------------------------------------------------------


call this... well chorus 2
E----------||--7-----8--7h8p7--5-----10--7h10p7-----12h8--14p10-------
B----------||----8-----------------8--------------8--------------------
G----------||------7-----------------------------------------------------
D---14p12--||-----------------------------------------------------------
A----------||-----------------------------------------------------------
E----------||-----------------------------------------------------------



E---12---||--------4-----5p4--------------5--8--||----------------------
B---15^--||-----5-------------5--------5-----8--||----------------------
G--------||--4-------------------4--6--------9--||----------------------
D--------||-------------------------------------||----------------------
A--------||-------------------------------------||----------------------
E--------||-------------------------------------||----------------------


repeat main theme, then this
E---7--9--9--7h9p7--5------------------------7--9--9--7h9p7--5----------
B----------------------9--7--9--10--7---------------------------9--7----
G--------------------------------------7--7-----------------------------
D-----------------------------------------------------------------------
A-----------------------------------------------------------------------
E-----------------------------------------------------------------------


repeate chorus, then this fill
E------------||--12---12----------15^---------------|--12---------------
B---9/10--9--||--15^------15--12-------15^--15--12--|------15--12-------
G------------||-------------------------------------|-------------------
D------------||-------------------------------------|-------------------
A------------||-------------------------------------|-------------------
E------------||-------------------------------------|-------------------


repeat chorus 2 then
E------------------------------------------|--------4--5p4--------------
B------------------------------------------|-----5----------5-----------
G---15--14--12-----------------------------|--4----------------4--6-----
D---------------14--12---------------------|----------------------------
A-----------------------14--13--12--10-----|----------------------------
E---------------------------------------12|----------------------------



E------5--8--||-----12--11--7--9--7--12--11--7--9--||--12--11--7--9-----
B---5-----8--||------------------------------------||-------------------
G---------9--||-----9---8---4--6--4--9---8---4--6--||--9---8---4--6-----
D------------||--9---------------------------------||-------------------
A------------||--9---------------------------------||-------------------
E------------||--7---------------------------------||-------------------



E---11--7---------------------------------------------------------------
B----------------------------------17--16--17--16h17p16------16--17-----
G---8---4--16--18--20--16--18--20------------------------18-------------
D-----------------------------------------------------------------------
A-----------------------------------------------------------------------
E-----------------------------------------------------------------------


Guitar solo, easy but cool
E-------16--19--21--2319--||-------------------------------------------
B---19---------------------||--14^--15--15--14^--15--15--14^--15--15----
G--------------------------||-------------------------------------------
D--------------------------||-------------------------------------------
A--------------------------||-------------------------------------------
E--------------------------||-------------------------------------------



E----------------------------------------------12-----------------------
B---14^--------------------15--14--12--------------15--14--15--14-------
G--------13h14p13--11------------------14--13---------------------------
D----------------------14-----------------------------------------------
A-----------------------------------------------------------------------
E-----------------------------------------------------------------------



E-----------------------------------------------------------------------
B---12------------------------------------------------------------------
G-------14--13--11------------------------------------------------------
D-------------------14--12--12p11------11-----------------------12------
A----------------------------------14------14-----12--12h13h14----------
E-----------------------------------------------------------------------



E--------------------------------------||-------------------------------
B--------------------------------------||------12--12------12-----------
G--------------------------------------||------12--12------12--12h13----
D--------------------------------------||--14----------14---------------
A---14p13p12--10--12--12^--12--10------||-------------------------------
E----------------------------------12--||-------------------------------



E-------12---------||------------------------------------12--15h16------
B---12------15-----||---------12--12------12---------12-----------------
G------------------||---------12--12------12--12h13---------------------
D------------------||-----14----------14--------------------------------
A------------------||---------------------------------------------------
E------------------||---------------------------------------------------



E---15h16--12h14p12------12--14--13--12------------------12--12---------
B--------------------14------------------14--13--12--------------12-----
G----------------------------------------------------13-----------------
D-----------------------------------------------------------------------
A-----------------------------------------------------------------------
E-----------------------------------------------------------------------



E------------------------12--------------||-----------------------------
B---------------------9------12----------||-----------------------------
G---11^--11--11p9h11-------------11^--9--||-----------------------------
D----------------------------------------||-----------------------------
A----------------------------------------||---------11h14--12-----------
E----------------------------------------||--12h14-------------10-------



E------------------------------------------------------------||---------
B------------------------------------------------------------||---------
G------------------------------------------------------------||---------
D---------------------------------------------------------2--||--14-----
A----------------------------------------------5-------------||---------
E---12h14--12--10--9h10--7--5--4h5--4--0--2h4-----0--2h4-----||---------



E-----------------------------------------------------------------------
B-----------12----------------------------------------------------------
G-----------12----------------------------------------------------------
D---14--14--------------------------------------------------------------
A-------------------11h14--12-------------------------------------------
E---------------12-------------10--12h14--12--10--9h10--7--5--4h5--4----



E-------------------------||--------------------------------------------
B-------------------------||--------------------------------------------
G-------------------------||----------7-------7-------7-------7--9------
D----------------------2--||-----8h9-----8h9-----8h9-----8h9------------
A-----------5-------------||--------------------------------------------
E---0--2h4-----0--2h4-----||--------------------------------------------



E------------------------------------------------||---------------------
B---------------------------------------------9--||---------------------
G---p7-----7-------7-------7-------7-------7--9--||---------------------
D-------9-----8h9-----8h9-----8h9-----8h9-----9--||---------------------
A------------------------------------------------||---------------------
E------------------------------------------------||---------------------


Then repeat theme with this lrepeat chorus with this fill 3
E--------12------------------||--15^--12----------------------12--------
B------------15p12--15--15^--||-----------15--12------------------15----
G---14^----------------------||-------------------15--14--12------------
D----------------------------||-----------------------------------------
A----------------------------||-----------------------------------------
E----------------------------||-----------------------------------------



E---------------------------------------||------------------------------
B---14--12------------------14------12--||------------------------------
G-----------15--14--12------14------12--||------------------------------
D-----------------------14------14------||------------------------------
A---------------------------------------||------------------------------
E---------------------------------------||------------------------------


Repeat chorus 2 and this ending
E--------14-----------14---------17--14--17--14----------17--14--17-----
B------------14--17^------17p14------------------17--14-----------------
G---16^-----------------------------------------------------------------
D-----------------------------------------------------------------------
A-----------------------------------------------------------------------
E-----------------------------------------------------------------------



E---14----------17--14--17--14----------17--14--17--14----------17------
B-------17--14------------------17--14------------------17--14----------
G-----------------------------------------------------------------------
D-----------------------------------------------------------------------
A-----------------------------------------------------------------------
E-----------------------------------------------------------------------



E---14--17--14----------17--14--17--14----------17^--||-----------------
B---------------17--14------------------17--14-------||-----------------
G----------------------------------------------------||-----------------
D----------------------------------------------------||-----------------
A----------------------------------------------------||-----------------
E----------------------------------------------------||-----------------



E---14p12p10------------------------------------------------------||----
B-------------14p12p10--14p12p10----------------------------------||----
G---------------------------------13p11p9--11p9-------------------||----
D------------------------------------------------12p11p9----------||----
A---------------------------------------------------------12--11--||----
E-----------------------------------------------------------------||----

In addition to Chords / Tabs Marty Friedman - Rock Box (First Version), we offer an excerpt from a random book.And Wells, not in view of the triumph of culture, had recently advised building a new Noah's ark.

LiveInternet