AllChordsTabs.com

Marillion - Heart Of Lothian (First Version) Chords and Tabs


Artists:
Chords and Tabs » M » Marillion - Heart Of Lothian (First Version)

Marillion - Heart Of Lothian (First Version)

Marillion - Heart Of Lothian (First Version) Chords / Tabs

Marillion - Heart Of Lothian First Version: chords and tabs for the song. Watch chords and tablatures for all songs of the singer (group) Marillion. Other chords and tabs for the "Heart Of Lothian" can find at the bottom of the page.

                                          Artist - Marillion
********************
Song - Heart Of Lothian
*************************
Album - Misplaced Childhood
*****************************
**********************



INTRO
******
MUTE WITH THE RIGHT HAND
[-----------------]
[---------8-7-----]
[---9-7-9-----7-9-]
[-7---------------]
[-----------------]
[-----------------]X9

00:20
Heavier no mute
GUITAR 1
[---------------|---------------|---------------|---------------]
[-------8-7-----|-------8-7-----|-------8-7-----|-------8-7-----]
[---7-9-----7-9-|---7-9-----7-9-|---7-9-----7-9-|---7-9-----7-9-]
[-7-------------|-7-------------|-7-------------|-7-------------]
[---------------|---------------|---------------|---------------]
[---------------|---------------|---------------|---------------]
|                                                               |
|GUITAR 2       Whammy                          Whammy          |
[---------------17------------------------------17--------------]
[---------------------------------------------------------------]
[---------------------------------------------------------------]
[---------------------------------------------------------------]
[---------------------------------------------------------------]
[---------------------------------------------------------------]


------------------------------------------------------------------
00:28
VERSE 1 - Play this With Verse 1.
********
[--------------12-|-9-10-12-9----|----9-10-9----|--------br--]
[----10---10------|-----------12-|-12--------10-|-10----10---]
[-9-----9----9----|--------------|--------------|----11----9-]
[-----------------|--------------|--------------|------------]
[-----------------|--------------|--------------|------------]
[-----------------|--------------|--------------|------------]X6

VERSE 1
********
Wide Boy
Wide boys, wide boys, wide boys, born with hearts of Lothian.
Wide boys, wide boys, born with hearts of Lothian.
Wide boys, we were wide boys, born with hearts of Lothian.
These hearts of Lothian.

------------------------------------------------------------------
01:05                         b
[-------------s---17-|-16-17-17-17|-------------s----b|---------------------]
[-----15-14-1517----|------------|-----15-14-1517-17|-17-15-14-15-14------]
[-14-----------------|------------|-14----------------|----------------14---]
[--------------------|------------|-------------------|-------------------14]
[--------------------|------------|-------------------|---------------------]
[--------------------|------------|-------------------|---------------------]

It's 6 o'clock in the tower blocks, The stalagmites of culture shock
p  p     p  p     p  p
[-------------s---17-|-----------------16-17-19-17-16-19-17-16-19-17-16---s-]
[-----15-14-1517----|--------------------------------------------------17-]
[-14-----------------|------------------------------------------------------]
[--------------------|------------------------------------------------------]
[--------------------|------------------------------------------------------]
[--------------------|------------------------------------------------------]

br
[-------------s---17-|-16---br-]
[-----15-14-1517----|-----17--]
[-14-----------------|---------]
[--------------------|---------]
[--------------------|---------]
[--------------------|---------]

And the trippers of the light fantastic, bowdown, hoedown. Spray their pheremones
p  p     p  p     p  p
[-------------s---17-|------------16-17-19-17-16-19-17-16-19-17-16----------]
[-----15-14-1517----|---------------------------------------------17-14----]
[-14-----------------|---------------------------------------------------14-]
[--------------------|------------------------------------------------------]
[--------------------|------------------------------------------------------]
[--------------------|------------------------------------------------------]

on this perfume uniform.
b r
[---------s---17-|-16----b-r----]
[-15-14-1517----|------17------]
[----------------|-----------14-]
[----------------|--------------]
[----------------|--------------]
[----------------|--------------]

And anarchy smiles in the Royal Mile. And they're waiting on the Slyboys,
p  p     p  p    b
[---------s---17-|--------------16-17-19-17-16-19-17-16-19----------------]
[-15-14-1517----|--------------------------------------------------------]
[----------------|--------------------------------------------------------]
[----------------|--------------------------------------------------------]
[----------------|--------------------------------------------------------]
[----------------|--------------------------------------------------------]

flyboys, wideboys.    Rooting, tooting Cowboys, lucky little ladies at the

[---------------s----b-|-------------------------------------------]
[-------15-14-1517-17-|----------------------17-15-14-15-14-------]
[-14-------------------|-------------------------------------14----]
[----------------------|----------------------------------------14-]
[----------------------|-------------------------------------------]
[----------------------|-------------------------------------------]

watering holes.  They'll score the Friday night goals.
b
[-------------------------------s---17-----------|-16-17-17-]
[-----------------------15-14-1517--------------|----------]
[-14---------------------------------------------|----------]
[------------------------------------------------|----------]
[------------------------------------------------|----------]
[------------------------------------------------|----------]

I was born...............         with a heart of Lothian
br
[--------------------s---17-|------16--------br-]
[------------15-14-1517----|----------------17-]
[----14---------------------|-------------------]
[---------------------------|-------------------]
[---------------------------|-------------------]
[---------------------------|-------------------]


02:15                        b
[-------------s---17-|-16-17-17-]
[-----15-14-1517----|----------]
[-14-----------------|----------]
[--------------------|----------]
[--------------------|----------]
[--------------------|----------]

I was born...............         with a heart of Lothian
br
[--------------------s---17-|------16--------br-]
[------------15-14-1517----|----------------17-]
[----14---------------------|-------------------]
[---------------------------|-------------------]
[---------------------------|-------------------]
[---------------------------|-------------------]

02:28                        b  b  b  b
[-------------s---17-|-16-17-17-17-17-17-]
[-----15-14-1517----|-------------------]
[-14-----------------|-------------------]
[--------------------|-------------------]
[--------------------|-------------------]
[--------------------|-------------------]

I was born...............         with a heart of Lothian
br
[--------------------s---17-|------16--------br-]
[------------15-14-1517----|----------------17-]
[----14---------------------|-------------------]
[---------------------------|-------------------]
[---------------------------|-------------------]
[---------------------------|-------------------]

hold
With a heart of Lothian.
02:41                        b
[-------------s---17-|-16-17-17-]
[-----15-14-1517----|----------]
[-14-----------------|----------]
[--------------------|----------]
[--------------------|----------]
[--------------------|----------]

It's six o'clock in the tower blocks,
The stalagmites of culture shock, (culture shock)
And the trippers of the light fantastic, bowdown, hoedown
Spray their pheromones on this perfume uniform.
And anarchy smiles in the Royal Mile.
And they're waiting on the Slyboys, flyboys, wideboys.
Rooting, tooting Cowboys, lucky little ladies at the watering holes.
They'll score the Friday night goals.
I was born, with a heart of Lothian.
I was born, with a heart of Lothian.
I was born, with a heart of Lothian.
With a heart of Lothian.

------------------------------------------------------------------
KEYBOARD
********
And the man from the magazine,
Wants another shot of you all curled up.
'Cos you look like an actor in a movie shot.
But you're feeling like a wino in a parking lot.
How did I get here anyway
Do we really need a playback of the show
'Cos the wideboys want to head for the watering holes,
Watering holes, watering holes.
Let's go.


This Maybe Played With An Ebow? or vol pedal
03:08
[-----s---------s------s---s-------h--s---s------s--s------s-s------s------]
[-5---10----14-12--1415-10---12-1415-10--1214/12--109/10--109-----]
[--------------------------------------------------------------------------]
[-----------------------------------------------------------------------7--]
[--------------------------------------------------------------------------]
[--------------------------------------------------------------------------]

And the man in the mirror has sad eyes.
vol
[------------------------------s---]
[-10---------------------------22-]
[----------------------------------]
[----------------------------------]
[----------------------------------]
[----------------------------------]


ENJOY............

In addition to Chords / Tabs Marillion - Heart Of Lothian (First Version), we offer an excerpt from a random book.My life is in your hands - hold my hand and don't let me go, no matter how hard I try.

LiveInternet