AllChordsTabs.com

Lifehouse - Good Enough (First Version) Chords and Tabs


Artists:
Chords and Tabs » L » Lifehouse - Good Enough (First Version)

Lifehouse - Good Enough (First Version)

Lifehouse - Good Enough (First Version) Chords / Tabs

Lifehouse - Good Enough First Version: chords and tabs for the song. Watch chords and tablatures for all songs of the singer (group) Lifehouse. Other chords and tabs for the "Good Enough" can find at the bottom of the page.

Tuning: Standard

I know it's not 100% correct, so feel free to leave a comment. And please, be polite :)
Make sure to listen to the song for struming patterns!

Intro/Verse

G        Em     C
e|--------------|--0--|-----|
B|--0-----1--0--|--0--|--1--|
G|--0--2--0--0--|--0--|--0--|
D|--0--0--0--0--|--2--|--2--|
A|--2--2--2--2--|--2--|--3--|
E|--3--3--3--3--|--0--|-----|

Prechorus

Dsus   Em     C   Dsus
e|--0--|--0--|-----|--0--|
B|--3--|--0--|--1--|--3--|
G|--2--|--0--|--0--|--2--|
D|--0--|--2--|--2--|--0--|
A|-----|--2--|--3--|-----|
E|-----|--0--|-----|-----|

Chorus

G        Em          D         C
e|--3--3--3--3--|--3--|--3--2--0--2--|-----|
B|--0-----1--0--|--0--|--3--3--3--3--|--1--|
G|--0--2--0--0--|--0--|--2--2--2--2--|--0--|
D|--0--0--0--0--|--2--|--0--0--0--0--|--2--|
A|--2--2--2--2--|--2--|--------------|--3--|
E|--3--3--3--3--|--0--|--------------|-----|

Bridge

C     G     D
e|--3--|--3--|--2--|
B|--1--|--3--|--3--|
G|--0--|--0--|--2--|
D|--2--|--0--|--0--|
A|--3--|--2--|-----|
E|-----|--3--|-----|

Ending

D
e|--3--2--0--2--|
B|--3--3--3--3--|
G|--2--2--2--2--|
D|--0--0--0--0--|
A|--------------|
E|--------------|


G
It seems the more we talk
G
The less I have to say
Em                        C
Let’s put our differences aside


G
I wanted to make you proud
G
But I just got in your way
Em                        C
I found a place that I can hide


Dsus
Now everything is changing
Em              C
But I still feel the same
Dsus
We’re running out of time


G
What do I have to do
Em
To try to make you see
D
That this is who I am
C
And it's all that I can be?


G
I tried to find myself
G
Looking inside your eyes
Em                              C
You were all that I was meant to be


G
There must be something else
G
Behind all the lies
Em                          C
That you have lead me to believe


Dsus
Now everyone is saying
Em              C
That I should find a way
Dsus
To leave it all behind


G
What do I have to do
Em
To try to make you see
D
That this is who I am
C
And it's all that I can be?


G
What do I have to do
Em
To try to make you see
D
Trying to be like you
C  G  D
Isn’t good enough for me?


C  G  D
I won't let you go
C  G  D
I won't let you down
C  G  D
I won't give you up
C  G  D
Don’t you give up on me now


G
What do I have to do
Em
To try to make you see
D
That this is who I am
C
And it's all that I can be?


G
What do I have to do
Em
To try to make you see
D
Trying to be like you
C
Isn’t good enough for me?

In addition to Chords / Tabs Lifehouse - Good Enough (First Version), we offer an excerpt from a random book.Olga's green eyes blazed with magic lights, in which I saw radiance from heaven.

LiveInternet