AllChordsTabs.com

Linkin Park - Blanka (First Version) Chords and Tabs


Artists:
Chords and Tabs » L » Linkin Park - Blanka (First Version)

Linkin Park - Blanka (First Version)

Linkin Park - Blanka (First Version) Chords / Tabs

Linkin Park - Blanka First Version: chords and tabs for the song. Watch chords and tablatures for all songs of the singer (group) Linkin Park. Other chords and tabs for the "Blanka " can find at the bottom of the page.

Tuning: DADGBE

INTRO
e|---------------------------------------------------------------------------|
B|---------------------------------------------------------------------------|
G|---------------------------------------------------------------------------|
D|-0--1--0--1--0--0---1--0--0--1--0--1--3--1---------------------------------|
A|-0--1--0--1--0--0---1--0--0--1--0--1--3--1---------------------------------|
D|-0--1--0--1--0--0---1--0--0--1--0--1--3--1---------------------------------|

e|---------------------------------------------------------------------------|
B|---------------------------------------------------------------------------|
G|---------------------------------------------------------------------------|
D|---0--1--0--1--0--0--0--7--3--6--1-----------------------------------------|
A|---0--1--0--1--0--0--0--7--3--6--1-----------------------------------------|
D|---0--1--0--1--0--0--0--7--3--6--1-----------------------------------------|

pm
e|---------------------------------------------------------------------------|
B|---------------------------------------------------------------------------|
G|---------------------------------------------------------------------------|
D|---------------------------------------------------------------------------| X2
A|---------------------------------------------------------------------------|
D|--0--1--0--1--0--0---1--0--0--1--0--1--3--1 -0--1--0--1--0--0--0--7--3--6--|

e|---------------------------------------------------------------------------|
B|---------------------------------------------------------------------------|
G|---------------------------------------------------------------------------|
D|---------------------------------------------------------------------------|
A|---------------------------------------------------------------------------|
D|--8-8-8-8-8-8-8-8-8-8-8-8-7-7-7-7-7-7-7-3-3-3-3-3-3-3-3-3-3----------------|

CHORUS
e|---------------------------------------------------------------------------|
B|---------------------------------------------------------------------------|
G|---------------------------------------------------------------------------|
D|-0-0-0-0-0-0-0-0-0-0-0-0-0-0--8-8-8-8-8-8-8-8-8-8-8-8-8--------------------|
A|-0-0-0-0-0-0-0-0-0-0-0-0-0-0--8-8-8-8-8-8-8-8-8-8-8-8-8--------------------|
D|-0-0-0-0-0-0-0-0-0-0-0-0-0-0--8-8-8-8-8-8-8-8-8-8-8-8-8--------------------|

e|---------------------------------------------------------------------------|
B|---------------------------------------------------------------------------|
G|---------------------------------------------------------------------------|
D|-10-10-10-10-10-10-10---3-3-3-3-3-3-3-3-3-3---7-7-7-7-7-7-7----------------|
A|-10-10-10-10-10-10-10---3-3-3-3-3-3-3-3-3-3---7-7-7-7-7-7-7----------------|
D|-10-10-10-10-10-10-10---3-3-3-3-3-3-3-3-3-3---7-7-7-7-7-7-7----------------|


e|---------------------------------------------------------------------------|
B|---------------------------------------------------------------------------|
G|---------------------------------------------------------------------------|
D|-0-0-0-0-0-0-0-0-0-0-0-0-0-0---8-8-8-8-8-8-8-8-8-8-8-8---------------------|
A|-0-0-0-0-0-0-0-0-0-0-0-0-0-0---8-8-8-8-8-8-8-8-8-8-8-8---------------------|
D|-0-0-0-0-0-0-0-0-0-0-0-0-0-0---8-8-8-8-8-8-8-8-8-8-8-8---------------------|

e|---------------------------------------------------------------------------|
B|---------------------------------------------------------------------------|
G|---------------------------------------------------------------------------|
D|-10-10-10-10-10-10-10---3-3-3-3-3-3-3-3-3-3---7-7-7-7-3-6-1----------------|
A|-10-10-10-10-10-10-10---3-3-3-3-3-3-3-3-3-3---7-7-7-7-3-6-1----------------|
D|-10-10-10-10-10-10-10---3-3-3-3-3-3-3-3-3-3---7-7-7-7-3-6-1----------------|

BRIDGE
e|---------------------------------------------------------------------------|
B|---------------------------------------------------------------------------|
G|---------------------------------------------------------------------------|
D|---7-3-6--7-3-6---7-3-6---5-4-1--------------------------------------------|
A|---7-3-6--7-3-6---7-3-6---5-4-1--------------------------------------------|
D|---7-3-6--7-3-6---7-3-6---5-4-1--------------------------------------------|


e|---------------------------------------------------------------------------|
B|---------------------------------------------------------------------------|
G|---------------------------------------------------------------------------|
D|---------------------------------------------------------------------------| X2
A|---------------------------------------------------------------------------|
D|--0-1-3-1-0---6-0---8-7--0-7-6-0-------------------------------------------|

e|---------------------------------------------------------------------------|
B|---------------------------------------------------------------------------|
G|---------------------------------------------------------------------------|
D|--0-1--3-1-0---6-0----8-7-0----7-6-0---------------------------------------|
A|--0-1--3-1-0---6-0----8-7-0----7-6-0---------------------------------------|
D|--0-1--3-1-0---6-0----8-7-0----7-6-0---------------------------------------|

ENDING
e|---------------------------------------------------------------------------|
B|---------------------------------------------------------------------------|
G|---------------------------------------------------------------------------|
D|--7-3-6-7-3-6-7-3-6---5-4-1-0----------------------------------------------|
A|--7-3-6-7-3-6-7-3-6---5-4-1-0----------------------------------------------|
D|--7-3-6-7-3-6-7-3-6---5-4-1-0----------------------------------------------|

In addition to Chords / Tabs Linkin Park - Blanka (First Version), we offer an excerpt from a random book.The first such fear was for his own grandfather, father's father, Shuya archpriest Fr.

LiveInternet