AllChordsTabs.com

Marduk - Steel Inferno (First Version) Chords and Tabs


Artists:
Chords and Tabs » M » Marduk - Steel Inferno (First Version)

Marduk - Steel Inferno (First Version)

Marduk - Steel Inferno (First Version) Chords / Tabs

Marduk - Steel Inferno First Version: chords and tabs for the song. Watch chords and tablatures for all songs of the singer (group) Marduk. Other chords and tabs for the "Steel Inferno" can find at the bottom of the page.

Copyright (c)  Blooddawn Productions 2004


Tuning: EADGBe
e ---0--------------0---------------------|
B ---0--------------0---------------------|
G ---0--------------0---------------------|
D -2---2-33333333-2---2-33333333----------|
A -2---2-33333333-2---2-33333333----------|
E -0---0-11111111-0---0-11111111----------| x4

e ----------------------------------------------------------------|
B ----------------------------------------------------------------|
G -55555555-88888888-55555555-88888888----------------------------|
D -55555555-88888888-55555555-88888888----------------------------|
A -33333333-66666666-33333333-66666666----------------------------|
E ----------------------------------------------------------------| x2
Praetorians reborn! Relentless spiral of death!
Armored spearhead, time of trial, circle of fire
e ----------------------------------------------------------------|
B ----------------------------------------------------------------|
G ----------------------------------------------------------------|
D -22222222-33333333-22222222-33333333----------------------------|
A -22222222-33333333-22222222-33333333----------------------------|
E -00000000-11111111-00000000-11111111----------------------------| x2
Rostov!  Charkow!
Kursk!   Tarnapol!
e ----------------------------------------------------------------|
B ----------------------------------------------------------------|
G ----------------------------------------------------------------|
D ---77--77-88-1111-1010-88---77--77-88-77-55-88------------------|
A -----77-----------------------77--------------------------------|
E -00-----------------------00------------------------------------| x4
Moments of glory and pride, Panzer deathride!
Death and hell on every side, Death and hell on every side!
e ----------------------------------------------------------------|
B ----------------------------------------------------------------|
G ---10---10---10-99-77-99-77-66----------------------------------|
D -3-10-3-10-3-10-99-77-99-77-66----------------------------------|
A -3-8--3-8--3-8--77-55-77-55-44----------------------------------|
E -1----1----1----------------------------------------------------| x8

e ----------------------------------------------------------------|
B ----------------------------------------------------------------|
G ----------------------------------------------------------------|
D -22222222-33333333-22222222-33333333----------------------------|
A -22222222-33333333-22222222-33333333----------------------------|
E -00000000-11111111-00000000-11111111----------------------------| x2
Camouflage gear rips, streams of blood drip
e ----------------------------------------------------------------|
B ----------------------------------------------------------------|
G -55555555-88888888-55555555-88888888----------------------------|
D -55555555-88888888-55555555-88888888----------------------------|
A -33333333-66666666-33333333-66666666----------------------------|
E ----------------------------------------------------------------| x2
Machine guns fire, spraying lethal dose, crawl across the Killing Fields
e ----------------------------------------------------------------|
B ----------------------------------------------------------------|
G ----------------------------------------------------------------|
D -99-77-99-1010-99-77-3333--99-77-99-1010-99-77------------------|
A -77-55-77-8-8--77-55-5555--77-55-77-8-8--77-55-8888-------------|
E -----------------------------------------------6666-------------| x2

e ----------------------------------------------------------------|
B ----------------------------------------------------------------|
G ----------------------------------------------------------------|
D -22222222-33333333-22222222-33333333----------------------------|
A -22222222-33333333-22222222-33333333----------------------------|
E -00000000-11111111-00000000-11111111----------------------------| x2
Black sun shine us forth, God's soldiers, without god
e ----------------------------------------------------------------|
B ----------------------------------------------------------------|
G ----------------------------------------------------------------|
D ---77--77-88-1111-1010-88---77--77-88-77-55-88------------------|
A -----77-----------------------77--------------------------------|
E -00-----------------------00------------------------------------| x4
High tide in the east - red deluge
On darkened wings - Death descends
Moments of glory and pride, Panzer deathride
Hell and death in every hide, hell and eath in every hide!
e ----------------------------------------------------------------|
B ----------------------------------------------------------------|
G ----------------------------------------------------------------|
D -99-77-99-1010-99-77-3333--99-77-99-1010-99-77------------------|
A -77-55-77-8-8--77-55-5555--77-55-77-8-8--77-55-8888-------------|
E -----------------------------------------------6666-------------| x2

e ----------------------------------------------------------------|
B ----------------------------------------------------------------|
G ---10---10---10-99-77-99-77-66----------------------------------|
D -3-10-3-10-3-10-99-77-99-77-66----------------------------------|
A -3-8--3-8--3-8--77-55-77-55-44----------------------------------|
E -1----1----1----------------------------------------------------| x8
STEEL            PANZER
INFERNO          DEATHRIDE

In addition to Chords / Tabs Marduk - Steel Inferno (First Version), we offer an excerpt from a random book.Where we are looking for each other - not me and not you; I would like to be silent, but it is silent - not very much.

LiveInternet