AllChordsTabs.com

Marilyn Manson - Disposable Teens (Third Version) Chords and Tabs


Artists:
Chords and Tabs » M » Marilyn Manson - Disposable Teens (Third Version)

Marilyn Manson - Disposable Teens (Third Version)

Marilyn Manson - Disposable Teens (Third Version) Chords / Tabs

Marilyn Manson - Disposable Teens Third Version: chords and tabs for the song. Watch chords and tablatures for all songs of the singer (group) Marilyn Manson. Other chords and tabs for the "Disposable Teens" can find at the bottom of the page.

(Full)
Marilyn Manson
Disposable Teens
Drop D Tuning (D-A-D-G-B-E)

Palm Mute: *

Intro: synthesizer
E--------------------|
B--------------------|
G---10^--------------|
D---10^--------------|
A--------------------|
D--------------------|

Intro(part two)Chorus:
E------------------------------------------------|
B------------------------------------------------|
G------------------------------------------------|
D---7—7—5—10---7—7—7—7—5--7---0-0-0-0------------|
A---7—7—5—10---7—7—7—7—5--7---0-0-0-0------------|
D---7—7—5—10---7—7—7—7—5--7---0-0-0-0------------|
*******
Verse:
E----------------------------------------------------------|
B----------------------------------------------------------|
G----------------------------------------------------------|
D---0-0-XXX---0-0-0-XXXXX---0-0-XXX---0-0-XXX---0-3-0-3----|
A---0-0-XXX---0-0-0-XXXXX---0-0-XXX---0-0-XXX---0-3-0-3----|
D---0-0-XXX---0-0-0-XXXXX---0-0-XXX---0-0-XXX---0-3-0-3----|

Bridge:
E--------------------------------------------------|
B--------------------------------------------------|
G--------------------------------------------------|
D---5-5-5-5-5-5-5-5-5-5-5-5-5-5-5--6---------------|
A---5-5-5-5-5-5-5-5-5-5-5-5-5-5-5--6---------------|
D---5-5-5-5-5-5-5-5-5-5-5-5-5-5-5--6---------------|

Order:
Intro (part one) 2X
Intro (part two) 4X
Verse 4X
Chorus 2X
Verse 3X
Chorus 4X
Verse 2X
Chorus 6X
Bridge
Intro (part one ) fill in
Chorus 12X

In addition to Chords / Tabs Marilyn Manson - Disposable Teens (Third Version), we offer an excerpt from a random book.I have been living in Tjarinda for so many months, and yet I have no legal status.

LiveInternet