AllChordsTabs.com

Kings Of Leon - On Call (Second Version) Chords and Tabs


Artists:
Chords and Tabs » K » Kings Of Leon - On Call (Second Version)

Kings Of Leon - On Call (Second Version)

Kings Of Leon - On Call (Second Version) Chords / Tabs

Kings Of Leon - On Call Second Version: chords and tabs for the song. Watch chords and tablatures for all songs of the singer (group) Kings Of Leon. Other chords and tabs for the "On Call" can find at the bottom of the page.

INTRO
Well this is played on keyboard but here it is for guitar anyway.
e|----10---10--10----10----10—-10---10----10--10----10----10—-10-|
B|--12---12--12----12----12--12---12----12--12----12----12—-12---|
G|---------------------------------------------------------------|
D|-9----9-----------------------12----12--------12----12---------|
A|---------------10----10----------------------------------------|
E|---------------------------------------------------------------|

BASS INTRO
G|-----------------------------------------------|
D|-----------------------------------------------|
A|------------------2-2-2-2-2--------------------|
E|--3-3-3-3-3-0-2-3-----------0-222--------------|

Lead
e|-2222222------------------------------------------|
B|-3333333------------------------------------------|
G|-4444444------------------------------------------|
D|-44444445555555555555555555555555-----------------|
A|-22222225555555555555555555555555-----------------|
E|--------3333333333333333333333333-----------------|
*************************
VERSE
Bass
G|-----------------------------------------------|
D|-----------------------------------------------|
A|------------------2-2-2-2-2--------------------|
E|--3-3-3-3-3-0-2-3-----------0-222--------------|

CHORUS
Rhythm
e|-3-3-3-3-3-3-3-3-3-3-3-3-3-3-3-3------------------|
B|-3-3-3-3-3-3-3-3-3-3-3-3-3-3-3-3------------------|
G|-4-4-4-4-4-4-4-4-4-4-4-4-4-4-4-4------------------|
D|-5-5-5-5-5-5-5-5-5-5-5-5-5-5-5-5------------------|
A|-5-5-5-5-5-5-5-5-5-5-5-5-5-5-5-5------------------|
E|-3-3-3-3-3-3-3-3-3-3-3-3-3-3-3-3------------------|

Lead
e|---15-----|
B|---15-----|
G|---0------|
D|---0------|
A|---14-----|
E|---15-----|

VERSE
Rhythm
e|--------------------------------------------------|
B|-----------------3-3-3-3-3-3-3-3------------------|
G|-4-4-4-4-4-4-4-4-4-4-4-4-4-4-4-4------------------|
D|-5-5-5-5-5-5-5-5-4-4-4-4-4-4-4-4------------------|
A|-5-5-5-5-5-5-5-5-2-2-2-2-2-2-2-2------------------|
E|-3-3-3-3-3-3-3-3----------------------------------|
* * * * * * * * * * * * * * * *

SOLO
e|--------------------------------------------------------------------|
B|--------------------------------------------------------------------|
G|-1212-1111----------/1212-1111----------/1212-1111------------------|
D|------------99-7-9~-------------99-7-9~-----------------------------|
A|--------------------------------------------------------------------|
E|--------------------------------------------------------------------|

e|--------------------------------------------------------------------|
B|-------------------------------1515------1212--------------15-------|
G|--------7-9-7--/1212-1111-1212------1414------1414-1212—/16--14-12-|
D|-99-7-9-------------------------------------------------------------|
A|--------------------------------------------------------------------|
E|--------------------------------------------------------------------|

e|------------------------------------------------------------12b-----|
B|------15----15----15----15----15---15----15----15--15----15—15b-----|
G|-14h16—14h16—14h16—14h16—14h16—14h16-14h16-14h16------16------------|
D|--------------------------------------------------------------------|
A|--------------------------------------------------------------------|
E|--------------------------------------------------------------------|

e|---------------------------------------------------------------12b--|
B|--------15-----------------15----15----15----15----15----15----15b--|
G|-----12---14b-16-14-12-14h16-14h16-14h16-14h16-14h16-14h16--16------|
D|-/14----------------------------------------------------------------|
A|--------------------------------------------------------------------|
E|--------------------------------------------------------------------|

In addition to Chords / Tabs Kings Of Leon - On Call (Second Version), we offer an excerpt from a random book.Here he is! The key to the relationship between composer and director is meeting during the performance.

LiveInternet