AllChordsTabs.com

Jewel - Plain Jane (First Version) Chords and Tabs


Artists:
Chords and Tabs » J » Jewel - Plain Jane (First Version)

Jewel - Plain Jane (First Version)

Jewel - Plain Jane (First Version) Chords / Tabs

Jewel - Plain Jane First Version: chords and tabs for the song. Watch chords and tablatures for all songs of the singer (group) Jewel. Other chords and tabs for the "Plain Jane" can find at the bottom of the page.

[Intro]
e|---------------|-------------------------------------------------------------------------------|
B|---------------|-------------------------------------------------------------------------------|
G|---------------|-------------------------------------------------------------------------------|
D|-------0-------|-------0-----------------------------------------------------------------------|
A|---4-----4---4-|---4-----4---4-----------------------------------------------------------------|
E|-5---5-----5---|-5---5-----5-------------------------------------------------------------------|

[Verse]
e|---------------|------------------|----------------|-------------------------------------------|
B|---------------|------------------|----------------|-------------------------------------------|
G|---------------|------------------|----------------|-------------------------------------------|
D|-------0-------|------------------|-------0--------|-------0-----------------------------------|
A|---4-----4---4-|---7---7---7----7-|---4-----4---4--|---4-----4---4-----------------------------|
E|-5---5-----5---|-7---7---7---7----|-5---5-----5----|-5---5-----5-------------------------------|

You wear couture clothing like a hunter wears camoflauge

e|---------------|------------------|------------------------------------------------------------|
B|---------------|------------------|------------------------------------------------------------|
G|---------------|------------------|------------------------------------------------------------|
D|-------0-------|------------------|-------0----------------------------------------------------|
A|---4-----4---4-|---7---7---7---7--|---4-----4---4----------------------------------------------|
E|-5---5-----5---|-7---7---7---7----|-5---5-----5------------------------------------------------|

Hiding insecurity, hoping no one ever catches on

e|-------------|-------------|-------------------------------------------------------------------|
B|-------------|-------------|-------------------------------------------------------------------|
G|-------------|-------------|-------------------------------------------------------------------|
D|-------------|-------------|-------0-----------------------------------------------------------|
A|---4---4---4-|---4---4---4-|---4-----4---4-----------------------------------------------------|
E|-2---2---2---|-4---4---4---|-5---5-----5-------------------------------------------------------|

You like to read scientific magazines like Vanity Fair

e|-------------|-------------|---------------|---------------------------------------------------|
B|-------------|-------------|---------------|---------------------------------------------------|
G|-------------|-------------|---------------|---------------------------------------------------|
D|-------------|-------------|-------0-------|-------0-------------------------------------------|
A|---4---4---4-|---4---4---4-|---4-----4---4-|---4-----4---4-------------------------------------|
E|-2---2---2---|-4---4---4---|-5---5-----5---|-5---5-----5---------------------------------------|

There was a well-written article about serotonin in there

e|---------------|------------------|----------------|-------------------------------------------|
B|---------------|------------------|----------------|-------------------------------------------|
G|---------------|------------------|----------------|-------------------------------------------|
D|-------0-------|------------------|-------0--------|-------0-----------------------------------|
A|---4-----4---4-|---7---7---7----7-|---4-----4---4--|---4-----4---4-----------------------------|
E|-5---5-----5---|-7---7---7---7----|-5---5-----5----|-5---5-----5-------------------------------|

You keep the same company you think Coco kept too


e|---------------|------------------|------------------------------------------------------------|
B|---------------|------------------|------------------------------------------------------------|
G|---------------|------------------|------------------------------------------------------------|
D|-------0-------|------------------|-------0----------------------------------------------------|
A|---4-----4---4-|---7---7---7---7--|---4-----4---4----------------------------------------------|
E|-5---5-----5---|-7---7---7---7----|-5---5-----5------------------------------------------------|

You wear a bracelet on your wrist that says What Would Elvis Do?


e|-------------|-------------|-------------------------------------------------------------------|
B|-------------|-------------|-------------------------------------------------------------------|
G|-------------|-------------|-------------------------------------------------------------------|
D|-------------|-------------|-------0-----------------------------------------------------------|
A|---4---4---4-|---4---4---4-|---4-----4---4-----------------------------------------------------|
E|-2---2---2---|-4---4---4---|-5---5-----5-------------------------------------------------------|

You make snide comments in private but in public you're fashionably green


e|-------------|-------------|---------------|---------------------------------------------------|
B|-------------|-------------|---------------|---------------------------------------------------|
G|-------------|-------------|---------------|---------------------------------------------------|
D|-------------|-------------|-------0-------|-------0-------------------------------------------|
A|---4---4---4-|---4---4---4-|---4-----4---4-|---4-----4---4-------------------------------------|
E|-2---2---2---|-4---4---4---|-5---5-----5---|-5---5-----5---------------------------------------|

You're ironic, but not too proud to brag, you know what it really means

[Chorus]
e|-----------------|-----------------|-----------------|-----------------------------------------|
B|-----------------|-----------------|-----------------|-----------------------------------------|
G|-----------------|-----------------|-----------------|-----------------------------------------|
D|---4---4---4---4-|-----------------|-----------------|---2---2---2---2-------------------------|
A|-4---4---4---4---|---4---4---4---4-|---4---4---4---4-|-2---2---2---2---------------------------|
E|-----------------|-4---4---4---4---|-5---5---5---5---|-----------------------------------------|

Cynicism has begun to numb the pain

e|-----------------|-----------------|-----------------|-----------------------------------------|
B|-----------------|-----------------|-----------------|-----------------------------------------|
G|-----------------|-----------------|-----------------|-----------------------------------------|
D|---4---4---4---4-|-----------------|-----------------|---2---2---2---2-------------------------|
A|-4---4---4---4---|---4---4---4---4-|---4---4---4---4-|-2---2---2---2---------------------------|
E|-----------------|-4---4---4---4---|-5---5---5---5---|-----------------------------------------|

And fashion still works until you realize you're the same

e|-----------------|---------------|-------------------------------------------------------------|
B|-----------------|---------------|-------------------------------------------------------------|
G|-----------------|---------------|-------------------------------------------------------------|
D|-----------------|-------0-------|-------0-----------------------------------------------------|
A|---2---2---2---2-|---4-----4---4-|---4-----4---4-----------------------------------------------|
E|-0---0---0---0---|-5---5-----5---|-5---5-----5-------------------------------------------------|

Plain Jane

[Verse]
e|---------------|------------------|----------------|-------------------------------------------|
B|---------------|------------------|----------------|-------------------------------------------|
G|---------------|------------------|----------------|-------------------------------------------|
D|-------0-------|------------------|-------0--------|-------0-----------------------------------|
A|---4-----4---4-|---7---7---7----7-|---4-----4---4--|---4-----4---4-----------------------------|
E|-5---5-----5---|-7---7---7---7----|-5---5-----5----|-5---5-----5-------------------------------|

You have a rock hard body but you only make love in the dark

e|---------------|------------------|------------------------------------------------------------|
B|---------------|------------------|------------------------------------------------------------|
G|---------------|------------------|------------------------------------------------------------|
D|-------0-------|------------------|-------0----------------------------------------------------|
A|---4-----4---4-|---7---7---7---7--|---4-----4---4----------------------------------------------|
E|-5---5-----5---|-7---7---7---7----|-5---5-----5------------------------------------------------|

Beneath painted lips you're afraid they'll see what's really in your heart

e|-------------|-------------|-------------------------------------------------------------------|
B|-------------|-------------|-------------------------------------------------------------------|
G|-------------|-------------|-------------------------------------------------------------------|
D|-------------|-------------|-------0-----------------------------------------------------------|
A|---4---4---4-|---4---4---4-|---4-----4---4-----------------------------------------------------|
E|-2---2---2---|-4---4---4---|-5---5-----5-------------------------------------------------------|

You say cool things like "At least murder is interesting"

e|-------------|-------------|---------------|---------------------------------------------------|
B|-------------|-------------|---------------|---------------------------------------------------|
G|-------------|-------------|---------------|---------------------------------------------------|
D|-------------|-------------|-------0-------|-------0-------------------------------------------|
A|---4---4---4-|---4---4---4-|---4-----4---4-|---4-----4---4-------------------------------------|
E|-2---2---2---|-4---4---4---|-5---5-----5---|-5---5-----5---------------------------------------|

'Cause the worst crime a person can commit in life is to be boring

[Chorus]
e|-----------------|-----------------|-----------------|-----------------------------------------|
B|-----------------|-----------------|-----------------|-----------------------------------------|
G|-----------------|-----------------|-----------------|-----------------------------------------|
D|---4---4---4---4-|-----------------|-----------------|---2---2---2---2-------------------------|
A|-4---4---4---4---|---4---4---4---4-|---4---4---4---4-|-2---2---2---2---------------------------|
E|-----------------|-4---4---4---4---|-5---5---5---5---|-----------------------------------------|

Cynicism has begun to numb the pain

e|-----------------|-----------------|-----------------|-----------------------------------------|
B|-----------------|-----------------|-----------------|-----------------------------------------|
G|-----------------|-----------------|-----------------|-----------------------------------------|
D|---4---4---4---4-|-----------------|-----------------|---2---2---2---2-------------------------|
A|-4---4---4---4---|---4---4---4---4-|---4---4---4---4-|-2---2---2---2---------------------------|
E|-----------------|-4---4---4---4---|-5---5---5---5---|-----------------------------------------|

And fashion still works until you realize you're the same

e|-----------------|---------------|-------------------------------------------------------------|
B|-----------------|---------------|-------------------------------------------------------------|
G|-----------------|---------------|-------------------------------------------------------------|
D|-----------------|-------0-------|-------0-----------------------------------------------------|
A|---2---2---2---2-|---4-----4---4-|---4-----4---4-----------------------------------------------|
E|-0---0---0---0---|-5---5-----5---|-5---5-----5-------------------------------------------------|

Plain Jane

[Bridge]
e|-------0-|-------0-|-------0-|-------0---------------------------------------------------------|
B|-------2-|-------0-|-------2-|-------0---------------------------------------------------------|
G|-----2---|-----1---|-----2---|-----1-----------------------------------------------------------|
D|---2-----|---2-----|---2-----|---2-------------------------------------------------------------|
A|-0-------|-2-------|-0-------|-2---------------------------------------------------------------|
E|---------|---------|---------------------------------------------------------------------------|

Such a sweet face, just embrace the real you

e|-------0-|-------0-|-------0-|-------0---------------------------------------------------------|
B|-------2-|-------0-|-------2-|-------0---------------------------------------------------------|
G|-----2---|-----1---|-----2---|-----1-----------------------------------------------------------|
D|---2-----|---2-----|---2-----|---2-------------------------------------------------------------|
A|-0-------|-2-------|-0-------|-2---------------------------------------------------------------|
E|---------|---------|---------------------------------------------------------------------------|

You will see it's just lovely and more than enough to be

e|--x--|-----|--x--|-----------------------------------------------------------------------------|
B|--2--|--0--|--2--|--0--------------------------------------------------------------------------|
G|--2--|--1--|--2--|--1--------------------------------------------------------------------------|
D|--2--|--2--|--2--|--2--------------------------------------------------------------------------|
A|--0--|--2--|--0--|--2--------------------------------------------------------------------------|
E|-----|-----|-----|-----------------------------------------------------------------------------|

Loved
Yes, loved

e|---------------|-------------------------------------------------------------------------------|
B|---------------|-------------------------------------------------------------------------------|
G|---------------|-------------------------------------------------------------------------------|
D|-------0-------|-------0-----------------------------------------------------------------------|
A|---4-----4---4-|---4-----4---4-----------------------------------------------------------------|
E|-5---5-----5---|-5---5-----5-------------------------------------------------------------------|

Loved

[Chorus]
e|-----------------|-----------------|-----------------|-----------------------------------------|
B|-----------------|-----------------|-----------------|-----------------------------------------|
G|-----------------|-----------------|-----------------|-----------------------------------------|
D|---4---4---4---4-|-----------------|-----------------|---2---2---2---2-------------------------|
A|-4---4---4---4---|---4---4---4---4-|---4---4---4---4-|-2---2---2---2---------------------------|
E|-----------------|-4---4---4---4---|-5---5---5---5---|-----------------------------------------|

Cynicism has begun to numb the pain

e|-----------------|-----------------|-----------------|-----------------------------------------|
B|-----------------|-----------------|-----------------|-----------------------------------------|
G|-----------------|-----------------|-----------------|-----------------------------------------|
D|---4---4---4---4-|-----------------|-----------------|---2---2---2---2-------------------------|
A|-4---4---4---4---|---4---4---4---4-|---4---4---4---4-|-2---2---2---2---------------------------|
E|-----------------|-4---4---4---4---|-5---5---5---5---|-----------------------------------------|

And fashion still works until you realize you're the same


e|-----------------|-----------------------------------------------------------------------------|
B|-----------------|-----------------------------------------------------------------------------|
G|-----------------|-----------------------------------------------------------------------------|
D|-----------------|-----------------------------------------------------------------------------|
A|---2---2---2---2-|---2---2---2---2-------------------------------------------------------------|
E|-0---0---0---0---|-0---0---0---0---------------------------------------------------------------|

Plain
What's wrong with plain old...

[Outro]
e|---------------|---------------|---------------|---------------|---------------|---------------|
B|---------------|---------------|---------------|---------------|---------------|---------------|
G|---------------|---------------|---------------|---------------|---------------|---------------|
D|-------0-------|-------0-------|-------0-------|-------0-------|-------0-------|-------0-------|
A|---4-----4---4-|---4-----4---4-|---4-----4---4-|---4-----4---4-|---4-----4---4-|---4-----4---4-|
E|-5---5-----5---|-5---5-----5---|-5---5-----5---|-5---5-----5---|-5---5-----5---|-5---5-----5---|

Jane?
I kinda like plain Jane
I like plain Jane

In addition to Chords / Tabs Jewel - Plain Jane (First Version), we offer an excerpt from a random book.For some everyday magical moment there is no longer an author and a spectator - only a poet and a poet.

LiveInternet