AllChordsTabs.com

Marcy Playground - St. Joe And The School Bus (First Version) Chords and Tabs


Artists:
Chords and Tabs » M » Marcy Playground - St. Joe And The School Bus (First Version)

Marcy Playground - St. Joe And The School Bus (First Version)

Marcy Playground - St. Joe And The School Bus (First Version) Chords / Tabs

Marcy Playground - St. Joe And The School Bus First Version: chords and tabs for the song. Watch chords and tablatures for all songs of the singer (group) Marcy Playground. Other chords and tabs for the "St. Joe And The School Bus" can find at the bottom of the page.

Verse
Strum Through Cords
-----------------------------------------
-----------------------------------------
-----------------------------------------
-4---7---2---3---4-----------------------
-4---7---2---3---4-----------------------
-2---5---0---1---2-----------------------

Interlude
Repeat 3X
------------------------------------------------------
------------------------------------------------------
------------------------------------------------------
------------------------------------------------------
-----2-----2---2------0--------4----------------------
-0-0---0-0---0----2-2---2--5-5---5--------------------

Then
-------------------------------------------------------
-------------------------------------------------------
-------------------------------------------------------
-------------------------------------------------------
-----4--------2--------7-----7---7-------2-----2---2---
-5-5---5--0-0---0--6-6---6-6---6----0-0----0-0---0---0-


SONG STRUCTURE

Verse
Interlude
Verse
Interlude

AND THAT’S IT

In addition to Chords / Tabs Marcy Playground - St. Joe And The School Bus (First Version), we offer an excerpt from a random book.The main objects of Azov's laughter are philistine in various spheres of public life.

LiveInternet