AllChordsTabs.com

Less Than Jake - Gainesville Rock City (Third Version) Chords and Tabs


Artists:
Chords and Tabs » L » Less Than Jake - Gainesville Rock City (Third Version)

Less Than Jake - Gainesville Rock City (Third Version)

Less Than Jake - Gainesville Rock City (Third Version) Chords / Tabs

Less Than Jake - Gainesville Rock City Third Version: chords and tabs for the song. Watch chords and tablatures for all songs of the singer (group) Less Than Jake. Other chords and tabs for the "Gainesville Rock City" can find at the bottom of the page.

TUNING : STANDARD

h=hammer on
p=pull off
<>=harmonic
.=palm mute

INTRO

E-0-----0-----0-----------0-----0-----0------------------------|
B-0-----0-----0-----------0-----0-----0-----------9------9-----|
G-1-----2-----6-----------1-----2-----6--------------9-------9-|
D-2-----2-----6-----4-----2-----2-----6-----4------------------|
A-2-----0-----4-----4-----2-----0-----4-----4------------------|
E-0-----------------2-----0-----------------2------------------|

COOL RIFF
E---------------------------------------------------------------------------|
B---------------------------------------------------------------------------|
G---------------------------------------------------------------------------|
D---------------6h7-6h7--------------6h7-6h7--------------6h7-6h7---------7-| x2
A--5h7-4h5-2h4----------5h7-4h5-2h4----------5h7-4h5-2h4----------5h7-4h5-7-|
E-0---0---0---00-------0---0---0---00-------0---0---0---00-------0---0----5-|
.   .   .   ..       .   .   .   ..       .   .   .   ..       .   .

(PLAY THIS WHEN SAX AND TROMBONE PLAY THE ABOVE.)

END OF INTRO
E-0--------------------0--------------------0--------------------0--------0-|
B-0--------------------0--------------------0--------------------0--------0-|
G-1--------------------1--------------------1--------------------1--------2-|
D-2--------------------2--------------------2--------------------2--------2-| X2
A-2--------------------2--------------------2--------------------2--------0-|
E-0--------------------0--------------------0--------------------0----------|

VERSE

E-0----------------0-|
B-0----------------0-|
G-1----------------0-|
D-2--------<12>----2-| X2
A-2----------------2-|
E-0------------------|

CHORUS

E---------------------------------|         E-----------------|
B---------------------------------|         B-----------------|
G-----------------9-9-9-9-6-6-6-6-|         G-----------------|
D-4-4-4-4-9-9-9-9-9-9-9-9-6-6-6-6-| X2 THEN D-4-4-4-4-7-7-7-7-|
A-4-4-4-4-9-9-9-9-7-7-7-7-4-4-4-4-|         A-4-4-4-4-7-7-7-7-|
E-2-2-2-2-7-7-7-7-----------------|         E-2-2-2-2-5-5-5-5-|

VERSE 2

E-0----12--------12------------12--------0-|
B-0----------12----------12-----------12-0-|
G-1--------------------------------------2-|
D-2--------------------------------------2-|
A-2--------------------------------------0-|
E-0----------------------------------------|

CHORUS = SAME BUT FIRST PART THREE TIMES

INTERLUDE

E-0-0-0-0-0-0-0-0-0-0-0-0-|
B-0-0-0-0-0-0-0-0-0-0-0-0-|
G-1-1-1-1-1-1-4-4-4-2-2-2-|
D-2-2-2-2-2-2-4-4-4-2-2-2-| X2
A-2-2-2-2-2-2-2-2-2-0-0-0-|
E-0-0-0-0-0-0-------------|

PLAY THE INTRO CHORDS THROUGH TWICE. FIRST TIME IT'S JUST WITH SAX AND TROMBONE
AND ON THE SECOND TIME SING "GAINSVILLE ROCK CITY" 3 TIMES.

PLAY THE COOL RIFF AGAIN UNTIL THE ENDING.

ENDING

E-----------------------------|
B-----------------------------|
G-----------------------------|
D-9-----9---------9---------9-|
A-9-----9-5h7-4h5-9-5h7-4h5-9-|
E-7-----7---------7---------7-|

That's it

In addition to Chords / Tabs Less Than Jake - Gainesville Rock City (Third Version), we offer an excerpt from a random book.They were still laughing when the red-haired and brown-haired woman crossed the threshold of the bar again.

LiveInternet