AllChordsTabs.com

Joe Cocker - Never Tear Us Apart (First Version) Chords and Tabs


Artists:
Chords and Tabs » J » Joe Cocker - Never Tear Us Apart (First Version)

Joe Cocker - Never Tear Us Apart (First Version)

Joe Cocker - Never Tear Us Apart (First Version) Chords / Tabs

Joe Cocker - Never Tear Us Apart First Version: chords and tabs for the song. Watch chords and tablatures for all songs of the singer (group) Joe Cocker. Other chords and tabs for the "Never Tear Us Apart" can find at the bottom of the page.

e|-----------------------------------|----------------------------------------|
B|------15b-(hold)~~---15r---13------|-15---18b-(hold)---18b+---18----17---15-|
G|-14---------------------------14-|----------------------------------------|
D|-----------------------------------|----------------------------------------|
A|-----------------------------------|----------------------------------------|
E|-----------------------------------|----------------------------------------|

e|---------------15---------------------|---------------5-------7---7b-(hold)---7br--5h7---5-|
B|--13-----15b-(hold)-15pb---13p10h13-|-5---8-------------5--------------------------------|
G|--------------------------------------|----------7b----------------------------------------|
D|--------------------------------------|----------------------------------------------------|
A|--------------------------------------|----------------------------------------------------|
E|--------------------------------------|----------------------------------------------------|

e|---------------------------------------------------------------|
B|-5---8---------8----5------------------------------------------|
G|---------7b-----------7br---5h7---7---5----------5-------------|
D|------------------------------------------7---5-----7----5---|
A|---------------------------------------------------------------|
E|---------------------------------------------------------------|

e|--------------------------5---3-------------------|
B|--------------------3h5-----------5---3-----------|
G|------------5-----------------------------5---2~~-|
D|--------------------------------------------------|
A|--------------------------------------------------|
E|-3h5---5-------5----------------------------------|

In addition to Chords / Tabs Joe Cocker - Never Tear Us Apart (First Version), we offer an excerpt from a random book.He was nailed to the spot with fear: one movement - and he would indicate his presence.

LiveInternet