AllChordsTabs.com

Jimmy Eat World - 23 (Third Version) Chords and Tabs


Artists:
Chords and Tabs » J » Jimmy Eat World - 23 (Third Version)

Jimmy Eat World - 23 (Third Version)

Jimmy Eat World - 23 (Third Version) Chords / Tabs

Jimmy Eat World - 23 Third Version: chords and tabs for the song. Watch chords and tablatures for all songs of the singer (group) Jimmy Eat World. Other chords and tabs for the "23" can find at the bottom of the page.

----------------------------------------------------------------------------
23 - Jimmy Eat World
----------------------------------------------------------------------------

Tuning: Drop d

Just Note I've Been Lazy And Number Of Notes is Not Always Correct

*Updated this since original to include the drop d tuning (I've learned to play
guitar since I tabbed this originally...)
and a couple other small changes.

Guitar 1=G1 {Jim Adkins} Uses his usual guitar, dropped the d, but doesn't matter for this song
Guitar 2=G2 {Tom Linton}
Guitar 3=G3 {Jim Adkins i'd assume again layering for the album version}

As many other songs in their arsenal, Jimmy Eat World play with all strings dropped a half,
but I wouldn't say this was entirely apparent from just looking at the cd and it
is actually easier to play most
if not all) in standard, drop d, tuning.
I'll put a revised version of Tom's part at the bottom.

1st Part Intro X2

Guitar 1
e|-------------------0----------------------0----------------------0-------|
B|------------------3----------------------3-3--------------------3--------|
G|-------------------------------------------------------------------------|
D|-------------------------------------------------------------------------|
A|-------------------------------------------------------------------------|
E|-------------------------------------------------------------------------|

Guitar 2
e|-------------------------------------------------------------------------|
B|-------3----3-----3------------------------------------------------------|
G|-------2----2-----2-----------2----2-----2-----------2----2-----2--------|
D|-------0----0-----0-----------2----2-----2-----------0----0-----0--------|
A|--2222---22---222---222--0000---00---000---000---------------------------|
D|------------------------------------------------0000---00---000---000----|

G1
e|-------------------0-----------------------------------------------------|
B|------------------3-3----------------------------------------------------|
G|-------------------------------------------------------------------------|
D|-------------------------------------------------------------------------|
A|-------------------------------------------------------------------------|
E|-------------------------------------------------------------------------|

G2
e|-------------------------------------------------------------------------|
B|-------------------------------------------------------------------------|
G|-------2----2-----2------------------------------------------------------|
D|-------0----0-----0------------------------------------------------------|
A|------(5)--(5)---(5)-----------------------------------------------------|
D|--5555---55---555---555--------------------------------------------------|

2nd Part Intro X2 (gonna be lazy here - number of notes doesn't correspond to song for G3)

G1                                                              (On2ndTime)
e|----------------0--------------0--------------0--------------0---(0)-----|
B|---------------3--------------3--------------3--------------3--(3)-------|
G|-------------------------------------------------------------------------|
D|-------------------------------------------------------------------------|
A|-------------------------------------------------------------------------|
E|-------------------------------------------------------------------------|

G2 - Tom continues his part

G3 (Tremelo Pick-just pick fast,flick plectrum back and forth across string)
e|-------------------------------------------------------------------------|
B|--17-17-17-17-17-14-14-14-14-14-15-15-15-15-15-17-15-15-15h17-15---------|
G|-------------------------------------------------------------------------|
D|-------------------------------------------------------------------------|
A|-------------------------------------------------------------------------|
E|-------------------------------------------------------------------------|

3rd Part Intro (where G1's part is actually fun)

G1
e|-----------555555555-----------33333333--2222222200555222222222200-------|
B|--000222333-----------000222333-----------------------------------33-2222|
G|-------------------------------------------------------------------------|
D|-------------------------------------------------------------------------|
A|-------------------------------------------------------------------------|
E|-------------------------------------------------------------------------|

G2 - Tom stays slaving away

G3 - Continue Tremelo Picking Over

G1
e|-----------555555555-----------33333333--2222222200555222222222200-------|
B|--000222333-----------000222333-----------------------------------33-2b2b|
G|-------------------------------------------------------------------------|
D|-------------------------------------------------------------------------|
A|-------------------------------------------------------------------------|
E|-------------------------------------------------------------------------|

Intro Over

Play 1st Part Into Again (Once)

He starts Singing on last few notes

Play 1st Part Intro Again (Three Times)

Play 2nd Part Intro Again

(This Part Is A Rough Guess)

G1 X4
e|--2--2--2--2--0--0--0--0--2--2--2--2--3--3--3--3-------------------------|
B|---3--3--3--3--3--3--3--3--3--3--3--3--3--3--3--3------------------------|
G|-------------------------------------------------------------------------|
D|-------------------------------------------------------------------------|
A|-------------------------------------------------------------------------|
E|-------------------------------------------------------------------------|

G2 X4 (Play G1 3rd Part Intro Though Needs To Be Quiet)
(Could Play 1st Part Intro)

G1
e|-----------555555555-----------33333333--2222222200555222222222200-------|
B|--000222333-----------000222333-----------------------------------33-2222|
G|-------------------------------------------------------------------------|
D|-------------------------------------------------------------------------|
A|-------------------------------------------------------------------------|
E|-------------------------------------------------------------------------|

G3 and G2 as usual

G1
e|-----------555555555-----------33333333--2222222200555222222222200-------|
B|--000222333-----------000222333-----------------------------------33-2b--|
G|-------------------------------------------------------------------------|
D|-------------------------------------------------------------------------|
A|-------------------------------------------------------------------------|
E|-------------------------------------------------------------------------|


G1 X4
e|--2--2--2--2--0--0--0--0--2--2--2--2--3--3--3--3-------------------------|
B|---3--3--3--3--3--3--3--3--3--3--3--3--3--3--3--3------------------------|
G|-------------------------------------------------------------------------|
D|-------------------------------------------------------------------------|
A|-------------------------------------------------------------------------|
E|-------------------------------------------------------------------------|

G2 X4 (Play G1 3rd Part Intro Though Needs To Be Quiet)
(Could Play 1st Part Intro)

Solo

G1 (Only)(Tom plays, do not know what chords tho, probably follows the bass)
e|--------------------------------------10----10--10-----------------------|
B|--151515-141414-121212-101010--8s7-7h8---7h8---7----7s15-----------------|
G|-------------------------------------------------------------------------|
D|-------------------------------------------------------------------------|
A|-------------------------------------------------------------------------|
E|-------------------------------------------------------------------------|

e|-------------------------------------------------------------------------|
B|--151515-141414-121212-101010--8s7-7h8p7---------------------------------|
G|-----------------------------------------9---9b--------------------------|
D|-------------------------------------------------------------------------|
A|-------------------------------------------------------------------------|
E|-------------------------------------------------------------------------|

e|-----------------------17171717171717----------------------17171717171717|
B|--171717-191919-151515----------------171717-191919-151515---------------|
G|-------------------------------------------------------------------------|
D|-------------------------------------------------------------------------|
A|-------------------------------------------------------------------------|
E|-------------------------------------------------------------------------|

e|--17-15-1414--17-15-1414--17-15-14h15p14-----17-15-14h15p14--------------|
B|-----------------------------------------17-----------------17-----------|
G|-------------------------------------------------------------------------|
D|-------------------------------------------------------------------------|
A|-------------------------------------------------------------------------|
E|-------------------------------------------------------------------------|

e|-----------------------------------17----17----17----17------171514------|
B|--17b(18)r17--15151515151515---1415--1415--1415--1415----1415------------|
G|-------------------------------------------------------------------------|
D|-------------------------------------------------------------------------|
A|-------------------------------------------------------------------------|
E|-------------------------------------------------------------------------|

Solo End

G1
G2(Repeat)
e|--222222222222222220000000000000-----------------------------------------|
B|--------------------------------33333333333333333333333333333333---------|
G|-------------------------------------------------------------------------|
D|-------------------------------------------------------------------------|
A|-------------------------------------------------------------------------|
E|-------------------------------------------------------------------------|

G1
e|--2-2-2-23-2-2-2-23-2-2-2-2-2-2-2---5-5-5-5--5-5-5-5--5-5-5-5------------|
B|---3-3-3----3-3-3----3-3-3-3-3-3-3---------------------------------------|
G|-------------------------------------7-7-7-7--7-7-7-7--7-7-7-7-----------|
D|-------------------------------------------------------------------------|
A|-------------------------------------------------------------------------|
E|-------------------------------------------------------------------------|

G1(Fade)(Repeat)
e|-------------------0----------------------0----------------------0-------|
B|------------------3----------------------3-3--------------------3--------|
G|-------------------------------------------------------------------------|
D|-------------------------------------------------------------------------|
A|-------------------------------------------------------------------------|
E|-------------------------------------------------------------------------|

Any thing to add, just comment.

Part Tom plays on stage:

eb|-------------------------------------------------------------------------|
Bb|-------4----4-----4------------------------------------------------------|
F#|-------3----3-----3-----------3----3-----3-----------3----3-----3--------|
C#|------------------------------3----3-----3-----------1----1-----1--------|
G#|--3333---33---333---333--1111---11---111---111------(1)--(1)---(1)-------|
C#|------------------------------------------------1111---11---111---111----|

eb|-------------------------------------------------------------------------|
Bb|-------------------------------------------------------------------------|
F#|-------8----8-----8------------------------------------------------------|
C#|-------6----6-----6------------------------------------------------------|
G#|------(6)--(6)---(6)-----------------------------------------------------|
C#|--6666---66---666---666--------------------------------------------------|

Cheers guys.

In addition to Chords / Tabs Jimmy Eat World - 23 (Third Version), we offer an excerpt from a random book.Their minds also wanted to be deceived - hence this incomplete, pain-relieving awareness.

LiveInternet