AllChordsTabs.com

Marty Friedman - Story (First Version) Chords and Tabs


Artists:
Chords and Tabs » M » Marty Friedman - Story (First Version)

Marty Friedman - Story (First Version)

Marty Friedman - Story (First Version) Chords / Tabs

Marty Friedman - Story First Version: chords and tabs for the song. Watch chords and tablatures for all songs of the singer (group) Marty Friedman. Other chords and tabs for the "Story " can find at the bottom of the page.

Intro:

e|---------------------------------------------------------------------------|
B|--5--5h6s-8-6--5h6p5---6--5-----------------s7----6-6--8---8--6p5----------|
G|---------------------7------7s-9--7--5--5------5------------------7--------|
D|---------------------------------------------------------------------------|
A|---------------------------------------------------------------------------|
E|---------------------------------------------------------------------------|

Verse:

e|---------------------------------------------------------------------------|
B|---------------------------------------------------------------------------|
G|------5-4-5-4-5-7-7-------------7-5-4-5-4-5-5-5-4-5-4----------------------|
D|--5-5---------------5-5----5-5------------------------5-5-7----------------|
A|---------------------------------------------------------------------------|
E|---------------------------------------------------------------------------|

e|---------------------------------------------------------------------------|
B|---------------------------------------------------------------------------|
G|-----5-7--7/9-9-7-9~~9p75--9-7------7-5-4-4-5-5--5-4-5--7--9/-------------|
D|---7----------------------------5-5~----------------------------7~~--------|
A|---------------------------------------------------------------------------|
E|---------------------------------------------------------------------------|

Pre-Chorus:

e|---------------------------------------------------------------------------|
B|---------------------------------------------------------------------------|
G|---7-9--10~~-9--9h10p9p75-5/7~-5-7/9-7-9~-9-7-9-12--5-4b(5)--------------|
D|-------------------------------------------------------------/7------------|
A|---------------------------------------------------------------------------|
E|---------------------------------------------------------------------------|

e|---------------------------------------------------------------------------|
B|---------------------------------------------------------------------------|
G|--5--7-9--10~~-9--9h10p9p75-5/7~---5-4----4h5-4-5--4-5--4-5-5-7-9-10-7-5-7|
D|-----------------------------------------7---------------------------------|
A|---------------------------------------------------------------------------|
E|---------------------------------------------------------------------------|

Chorus:

e|---------------------------------------------------------------------------|
B|---------------------------------------------------------------------------|
G|--12-12-12-12--5-5-4-5-4b(5)--12-12-12-12--5-5/9-10-9~7-5~-4-5-4t(5)--9--|
D|----------------------------------------------------------------------7----|
A|---------------------------------------------------------------------------|
E|---------------------------------------------------------------------------|

e|---------------------------------------------------------------------------|
B|---------------------------------------------------------------------------|
G|--4-4-5-4-5-7-9-10-7-5-5-5~------------------------------------------------|
D|---------------------------------------------------------------------------|
A|---------------------------------------------------------------------------|
E|---------------------------------------------------------------------------|

Lick:

e|---------------------------------------------------------------------------|
B|------------/8-8-6-5-5h6p5----5--------------------------------------------|
G|---------------------------7-----------------------------------------------|
D|--5-7-5-5-5----------------------------------------------------------------|
A|---------------------------------------------------------------------------|
E|---------------------------------------------------------------------------|

2nd Verse:

e|-------------------------------------------------------------------------------------|
B|--------13-12-13-12-13-13b(15)------------15-13-12-12-12-12b(13)-12-12b(1------------|
G|--12-12-----------------------12-12~-1212----------------------------------12-12-14~-|
D|-------------------------------------------------------------------------------------|
A|-------------------------------------------------------------------------------------|
E|-------------------------------------------------------------------------------------|

e|---------------------------------------------------------------------------|
B|---------------------------------------------------------------------------|
G|--5h7/9/109-7------------------------------------------------------------|
D|---------------------------------------------------------------------------|
A|---------------------------------------------------------------------------|
E|---------------------------------------------------------------------------|

e|---------------------------------------------------------------------------|
B|---------------8b(10)-8-5-8-5----------------------------------------------|
G|-7p5-5b(7)--5-----------------7-5-5/7/9-10-9-10-9-10-9-7/5-4-5-7-7~--------|
D|---------------------------------------------------------------------------|
A|---------------------------------------------------------------------------|
E|---------------------------------------------------------------------------|

Pre-Chorus:

e|---------------------------------------------------------------------------|
B|---------------------------------------------------------------------------|
G|---7-9--10~~-9--9h10p9p75-5/7~-5-7/9-7-9~-9-7-9-12--5-4b(5)--------------|
D|-------------------------------------------------------------/7------------|
A|---------------------------------------------------------------------------|
E|---------------------------------------------------------------------------|

e|---------------------------------------------------------------------------------------------|
B|---------------------------------------------------------------------------------------------|
G|--5--7-9--10~~-9--9h10p9p75-5/7~---5-4----4h5-4-5--4-5--4-5-5-7-9-10-9-10-12b(14)-12-10-12--|
D|-----------------------------------------7---------------------------------------------------|
A|---------------------------------------------------------------------------------------------|
E|---------------------------------------------------------------------------------------------|

Chorus: (As written above)

Solo:

e|---------------------------------------------------------------------------|
B|----------8b(10)-8-8b(10)-7-7-6-8~-8~-7------------------------------------|
G|--5-5-5---------------------------------7-7b(9)-5-4-4b(5)------------------|
D|---------------------------------------------------------5-5/7~------------|
A|---------------------------------------------------------------------------|
E|---------------------------------------------------------------------------|

e|---------------------------------------------------------------------------|
B|---8b(10)-8-8b(10)-7-7-6-8~-8~-10-10-12-12b(14)-10~------------------------|
G|---------------------------------------------------------------------------|
D|---------------------------------------------------------------------------|
A|---------------------------------------------------------------------------|
E|---------------------------------------------------------------------------|

e|---------------------------------------------------------------------------|
B|---6-53-------------------------------------------------------------------|
G|---------5-5-5------------------9-10-12-10-12b(14)-12-107/95-------------|
D|---------------7-5-5-5-5h7p5p4h5-------------------------------------------|
A|---------------------------------------------------------------------------|
E|---------------------------------------------------------------------------|

e|---------------------------------------------------------------------------|
B|---------------------------------------------------------------------------|
G|--5-7-9-9~-5~~~-5-7-9-9~-5~~-----------------------------------------------|
D|---------------------------------------------------------------------------|
A|---------------------------------------------------------------------------|
E|---------------------------------------------------------------------------|

e|---------------------------------------------------------------------------|
B|---------------------------------------------------------------------------|
G|--5/9h10 10-9 10-12-12sb(14)-----------------------------------------------|
D|---------------------------------------------------------------------------|
A|---------------------------------------------------------------------------|
E|---------------------------------------------------------------------------|

Chorus: (key change)

e|-----------------------------------------------------------------------------|
B|-----------------------------------------------------------------------------|
G|--14-14-14-14--7-7-6-7-6b(7)--14-14-14-14--7-7/11-12-11~9-7~-6-7-6t(7)--9--|
D|-------------------------------------------------------------------------9---|
A|-----------------------------------------------------------------------------|
E|-----------------------------------------------------------------------------|

e|---------------------------------------------------------------------------|
B|---------------------------------------------------------------------------|
G|-6-6-7-6-7-9-11-12---14b(16)-14-12-14~-------------------------------------|
D|---------------------------------------------------------------------------|
A|---------------------------------------------------------------------------|
E|---------------------------------------------------------------------------|

Lick 2:

e|---------------------------------14h17p14-------------------------------------|
B|---------------------/15~--14h15---------15h17p15p14h15p14--------------------|
G|---11-11-11-12-11-12--------------------------------------16-14---14----------|
D|---------------------------------------------------------------16---16-1412--|
A|------------------------------------------------------------------------------|
E|------------------------------------------------------------------------------|

Lick 2:

e|--------------------------------------------------10---9-------------------|
B|-----------------------------------------------7h8--6h7--5h7h8p7p5---------|
G|-14-14-14-14--7-7-6-7-6b(7)--14-14-14-147-7---------------------7~-------|
D|---------------------------------------------------------------------------|
A|---------------------------------------------------------------------------|
E|---------------------------------------------------------------------------|

e|--------------------------------------14-15-15b(17) 15b(17)----------------|
B|-------------------------/15-14-15-17--------------------------------------|
G|-6-6-7-6-7-9-11-12-9-7-7---------------------------------------------------|
D|---------------------------------------------------------------------------|
A|---------------------------------------------------------------------------|
E|---------------------------------------------------------------------------|

e|---------------------------------------------------------------------------|
B|---------------------------------------------------------------------------|
G|--------------------------4------------------------------------------------|
D|-------------5-------4h5h7-------------------------------------------------|
A|--------5h7h9---4h5h7-------------4-5-7------------------------------------|
E|--5h7h9---------------------5-7-9------------------------------------------|

Chorus: (2nd Key change)

e|---------------------------------------------------------------------------------|
B|---------------------------------------------------------------------------------|
G|--15-15-15-15--8-8-7-7-7b(8)--15-15-15-15--8-8/12-13-12~10-8~-7-8-7t(8)--10----|
D|-------------------------------------------------------------------------10------|
A|---------------------------------------------------------------------------------|
E|---------------------------------------------------------------------------------|

e|---------------------------------------------------------------------------|
B|---------------------------------------------------------------------------|
G|--7-7-8-7-8-10-12-13-10-7-8-8-10-11-10-11-13-15-16-13-11-11-11-------------|
D|---------------------------------------------------------------------------|
A|---------------------------------------------------------------------------|
E|---------------------------------------------------------------------------|

e|---------------------------------------------------------------------------|
B|---------------------------------------------------------------------------|
G|--11-11-13-14-13-14-16-18-19-19b(21)19 18 18~~~~~~~~~----------------------|
D|---------------------------------------------------------------------------|
A|---------------------------------------------------------------------------|
E|---------------------------------------------------------------------------|

In addition to Chords / Tabs Marty Friedman - Story (First Version), we offer an excerpt from a random book.In Scotland, Chopin performed several times in public: he played in Edinburgh and Glasgow.

LiveInternet