AllChordsTabs.com

Jimmy Eat World - Get Right (First Version) Chords and Tabs


Artists:
Chords and Tabs » J » Jimmy Eat World - Get Right (First Version)

Jimmy Eat World - Get Right (First Version)

Jimmy Eat World - Get Right (First Version) Chords / Tabs

Jimmy Eat World - Get Right First Version: chords and tabs for the song. Watch chords and tablatures for all songs of the singer (group) Jimmy Eat World. Other chords and tabs for the "Get Right " can find at the bottom of the page.

[Intro]/[verse] [0:00 - 0:34]

This riff is nearly played throughout the whole song
e|---------------------------------------------------------------------------|
B|---------------------------------------------------------------------------|
G|---------------------------------------------------------------------------|
D|---------------------------------------------------------------------------|  x6
A|-5-5-5-5-5-5-5-------------------------------------------------------------|
D|---------------3-3-3-3-3-3-3-3-8-8-8-8-8-8-8-8-5-5-5-5-5-5-5-5-------------|
PM..........................................................................




[Chorus] [0:34 - 0:55]

Guitar 1
You can keep playing the same riff as the verse, or open it up like so:
e|---------------------------------|-----------------------------------------|
B|---------------------------------|-----------------------------------------|
G|-7-7-7-7-------------------------|-7-7-7-7---------------------------------|
D|-7-7-7-7-3-3-3-3-8-8-8-8-5-5-5-5-|-7-7-7-7-3-3-3-3-8-8-8-8-5-5-5-5---------|  x2
A|-5-5-5-5-3-3-3-3-8-8-8-8-5-5-5-5-|-5-5-5-5-3-3-3-3-8-8-8-8-5-5-5-5---------|
D|---------3-3-3-3-8-8-8-8-5-5-5-5-|---------3-3-3-3-8-8-8-8-5-5-5-5---------|


Guitar 2
This keeps getting played throughout the chorus
e|-------------------------|------------------------|
B|-10-10-10-10-10-10-10-10-|10-10-10-10-10-10-10-10-|
G|---7--7--7--7--7--7--7--7|--7--7--7--7--7--7--7--7|
D|-------------------------|------------------------|  x2
A|-------------------------|------------------------|
D|-------------------------|------------------------|



[Bridge 1] [0:56 - 1:07]

Guitar 1 (let it ring)
e|---------------------------------------------------------------------------|
B|---------------------------------------------------------------------------|
G|---------------------------------------------------------------------------|
D|-0-------------------------------------------------------------------------|
A|-0-------------------------------------------------------------------------|
D|-0-------------------------------------------------------------------------|

Guitar 2
e|---------------------------------------------------------------------------|
B|-10----11~-----/10---------------------------------------------------------|
G|----10-------------10-7~---------------------------------------------------|
D|---------------------------------------------------------------------------|
A|---------------------------------------------------------------------------|
D|---------------------------------------------------------------------------|



[Verse2] same as first [1:07 - 1:29]
e|---------------------------------------------------------------------------|
B|---------------------------------------------------------------------------|
G|---------------------------------------------------------------------------|
D|---------------------------------------------------------------------------|  x4
A|-5-5-5-5-5-5-5-------------------------------------------------------------|
D|---------------3-3-3-3-3-3-3-3-8-8-8-8-8-8-8-8-5-5-5-5-5-5-5-5-------------|
PM..........................................................................



[Chorus2] same as first [1:30 - 1:51]

Guitar 1
e|---------------------------------|-----------------------------------------|
B|---------------------------------|-----------------------------------------|
G|-7-7-7-7-------------------------|-7-7-7-7---------------------------------|
D|-7-7-7-7-3-3-3-3-8-8-8-8-5-5-5-5-|-7-7-7-7-3-3-3-3-8-8-8-8-5-5-5-5---------|  x2
A|-5-5-5-5-3-3-3-3-8-8-8-8-5-5-5-5-|-5-5-5-5-3-3-3-3-8-8-8-8-5-5-5-5---------|
D|---------3-3-3-3-8-8-8-8-5-5-5-5-|---------3-3-3-3-8-8-8-8-5-5-5-5---------|


Guitar 2
e|-------------------------|------------------------|
B|-10-10-10-10-10-10-10-10-|10-10-10-10-10-10-10-10-|
G|---7--7--7--7--7--7--7--7|--7--7--7--7--7--7--7--7|
D|-------------------------|------------------------|  x2
A|-------------------------|------------------------|
D|-------------------------|------------------------|





[Bridge 2/ Interlude] [1:52 - 2:14]

Guitar 1
e|----------------------------------------------------------------------------|
B|----------------------------------------------------------------------------|
G|--7-7-7-7-7-7-7-7-----------------------------------------------------------|
D|--7-7-7-7-7-7-7-7-8-8-8-8-10-10-10-10---------------------------------------| x3
A|--5-5-5-5-5-5-5-5-8-8-8-8-10-10-10-10---------------------------------------|
D|------------------8-8-8-8-10-10-10-10---------------------------------------|

e|---------------------------------------------------------------------------|
B|---------------------------------------------------------------------------|
G|-7-7-7-7-7-7-7-7-----------------------------------------------------------|
D|-7-7-7-7-7-7-7-7-8---8---8---8---------------------------------------------|
A|-5-5-5-5-5-5-5-5-8---8---8---8---------------------------------------------|
D|-----------------8---8---8---8---------------------------------------------|


Guitar 2 I think it's something like this.  The '10(x24)' is 10 played about 24 times.
e|---------------------------------------------------------------------------|
B|---------------------------------------------------------------------------|
G|-10(x24)-9-9-9-9-7-7-7-7---10(X24)-12-12-12b14-14-14-14-14-----------------|
D|---------------------------------------------------------------------------| x4
A|---------------------------------------------------------------------------|
D|---------------------------------------------------------------------------|
*With the bend, bend it gradually, then keep playing it.  The 14 doesn't mean the 14th fret, but the bend
continues.  If that makes sense?




[Chorus 3] [2:15 - 2:36]

Guitar 1
e|---------------------------------|-----------------------------------------|
B|---------------------------------|-----------------------------------------|
G|-7-7-7-7-------------------------|-7-7-7-7---------------------------------|
D|-7-7-7-7-3-3-3-3-8-8-8-8-5-5-5-5-|-7-7-7-7-3-3-3-3-8-8-8-8-5-5-5-5---------|  x2
A|-5-5-5-5-3-3-3-3-8-8-8-8-5-5-5-5-|-5-5-5-5-3-3-3-3-8-8-8-8-5-5-5-5---------|
D|---------3-3-3-3-8-8-8-8-5-5-5-5-|---------3-3-3-3-8-8-8-8-5-5-5-5---------|


Guitar 2
e|-------------------------|------------------------|
B|-10-10-10-10-10-10-10-10-|10-10-10-10-10-10-10-10-|
G|---7--7--7--7--7--7--7--7|--7--7--7--7--7--7--7--7|
D|-------------------------|------------------------|  x2
A|-------------------------|------------------------|
D|-------------------------|------------------------|


[Outro]

Guitar 1 (let it ring)
e|---------------------------------------------------------------------------|
B|---------------------------------------------------------------------------|
G|---------------------------------------------------------------------------|
D|-0-------------------------------------------------------------------------|
A|-0-------------------------------------------------------------------------|
D|-0-------------------------------------------------------------------------|

Guitar 2
e|---------------------------------------------------------------------------|
B|-10----11~-----/10---------------------------------------------------------|
G|----10-------------10-7~---------------------------------------------------|
D|---------------------------------------------------------------------------|
A|---------------------------------------------------------------------------|
D|---------------------------------------------------------------------------|

Ends with:
e|---------------------------------------------------------------------------|
B|---------------------------------------------------------------------------|
G|-7-7-7-7-7-7-7-7-----------------------------------------------------------|
D|-7-7-7-7-7-7-7-7-----------------------------------------------------------|
A|-5-5-5-5-5-5-5-5-----------------------------------------------------------|
D|---------------------------------------------------------------------------|

In addition to Chords / Tabs Jimmy Eat World - Get Right (First Version), we offer an excerpt from a random book.“I don’t want to,” he shook his head and sat down next to her, touching her with his forearm.

LiveInternet