AllChordsTabs.com

Lifehouse - Somebody Elses Song (First Version) Chords and Tabs


Artists:
Chords and Tabs » L » Lifehouse - Somebody Elses Song (First Version)

Lifehouse - Somebody Elses Song (First Version)

Lifehouse - Somebody Elses Song (First Version) Chords / Tabs

Lifehouse - Somebody Elses Song First Version: chords and tabs for the song. Watch chords and tablatures for all songs of the singer (group) Lifehouse. Other chords and tabs for the "Somebody Elses Song" can find at the bottom of the page.

-----------------------------------------------------------------------------
SOMEBODY ELSEВґS SONG - Lifehouse
-----------------------------------------------------------------------------
Hagabrielha

Tuning: Standard

Guitar 1 - Clean/Distortion
Guitar 2 - Nylon String Guitar
Guitar 3 - Acoustic

Intro:
At the second time there are two guitars that play the same but i tabbed just for one.

Guitar 1 (Clean):
e|-----------------------------|
B|-----------------------------|
G|-------------9-----------9---|
D|----9--9--9--9--9--9--9--9---|  Repeat 4 times
A|---11-11-11-11-10-10-10-10---|
E|-----------------------------|


Verse:

Rhythm Figure 1 w/Guitar 3:
IВґll just put the chords
Figure out the strumming:

Bm          Asus2
e|-----2------------0---------0-----------------------|
B|-----3------------0---------0-----------------------|
G|-----4------------2---------0-----------------------|
D|-----4------------2---------2-----------------------|  Repeat 4 Times
A|-----2------------0---------2-----------------------|
E|-----x------------x---------0-----------------------|

CanВґt      change this fee___ling

At the second Time you repeat the strumming above, Play this:

Riff 1 w/Guitar 2:
e|---------------------------------------------|            |
B|----------------------7777777----------------|            |
G|--4------6--7----7----------------6--7----7--|            |
D|---------------------------------------------|            |
A|---------------------------------------------|            |
E|---------------------------------------------|            |
| Play only once
e|-------------------------------------------------|        |
B|----------------------10101010101010-8-7---------|        |
G|--4------6--7----7----------------------------0--|        |
D|-------------------------------------------------|        |
A|-------------------------------------------------|        |
E|-------------------------------------------------|        |

At the Third Time you repeat the strumming of the Rythm Figure 1, Play This:

Riff 2 w/Guitar 1(Clean):
e|----------------------|-------------------------|         |
B|----------------------|-------------------------|         |
G|--------4----------2--|-------------------------|         |
D|-----4----------2-----|-------------------------|         |
A|--2----------0--------|----------------0-----0--|         |
E|----------------------|--0----0--0--3-----3-----|         |
| Repeat 2 Times
e|--------------------------|-----------0-----------|       |
B|--------------------0-----|--------0------0-------|       |
G|--------4--------2-----2--|-----0-----------------|       |
D|-----4-----3--2-----------|-----------------------|       |
A|--2-----------------------|--------------------0--|       |
E|--------------------------|--0--------------------|       |

At the second time ypu repeat the Fill 2 the last bar goes like this:

e|----------------------|
B|-----------0----------|
G|--------0-------------|
D|-----2----------------|
A|----------------------|
E|--0-------------------|


Pre Chorus:

Riff 3 w/Guitar 1(Clean)& Guitar 3(Acoustic):
e|--3-------------------------------|
B|--3-------------------------------|
G|--0-------------------------------|
D|--0-------------------------------|
A|--x-------------------------------|
E|--3--------------------*12-------|

*Only Plays The Guitar 1(Distortion)


Chorus:
It is played with 2 guitars but i tabbed just for one

Rhythm Figure 2 w/Guitar 1(Distortion):
e|--------------------------|--------------------------|
B|--------------------------|--------------------------|
G|--------------------------|--------------------------|
D|--2--2--2--2--7--7--7--7--|--5--5--5--5--7--7--7--7--|
A|--2--2--2--2--7--7--7--7--|--5--5--5--5--7--7--7--7--|
E|--0--0--0--0--5--5--5--5--|--3--3--3--3--5--5--5--5--|

e|--------------------------|----------------------------------|
B|--------------------------|----------------------------------|
G|--------------------------|--13--13--13--13--12--12--12--12--|
D|--9--9--9--9--7--7--7--7--|---x---x---x---x---x---x---x---x--|
A|--9--9--9--9--7--7--7--7--|--11--11--11--11--10--10--10--10--|
E|--7--7--7--7--5--5--5--5--|----------------------------------|

e|--------------------------|--------------------------|
B|--------------------------|--------------------------|
G|--------------------------|--------------------------|
D|--2--2--2--2--7--7--7--7--|--5--5--5--5--7--7--7--7--|
A|--2--2--2--2--7--7--7--7--|--5--5--5--5--7--7--7--7--|
E|--0--0--0--0--5--5--5--5--|--3--3--3--3--5--5--5--5--|

e|--------------------------|----------------------------------|    |
B|--------------------------|----------------------------------|    |
G|--------------------------|--13--13--13--16--12--12--12------|    |Repeat
D|--9--9--9--9--7--7--7--7--|---x---x---x---x---x---x---x------|    |2 times
A|--9--9--9--9--7--7--7--7--|--11--11--11--14--10--10--10------|    |
E|--7--7--7--7--5--5--5--5--|----------------------------------|    |

e|--------------------------|
B|--------------------------|
G|--------------------------|
D|--9--9--9--9--7--7--7--7--|
A|--9--9--9--9--7--7--7--7--|
E|--7--7--7--7--5--5--5--5--|

Interlude:
Repeat Intro 2 Times

Verses:
Repeat Rhythm Figure 1 (2 times)
Repeat Riff 1 (2 times)
Repeat Riff 2

Pre Chorus:
Repeat Riff 3

Chorus:
Repeat Rhythm Figure 2

Interlude:
Strum The Next Chords but Figure out the pattern:

Dadd9/F#       F              Dadd9/F#       F

e|--0-----------1-----------------0-----------1-----------|
B|--1-----------1-----------------1-----------1-----------|
G|--2-----------2-----------------2-----------2-----------|
D|--0-----------3-----------------0-----------3-----------|
A|--x-----------3-----------------x-----------3-----------|
E|--2-----------1-----------------2-----------1-----------|

Strum The next chords just once each Chord:
E     F  E     F     E  F  E
e|--0-----1--0-----1--|--0--1--0------|
B|--0-----1--0-----1--|--0--1--0------|
G|--1-----2--1-----2--|--1--2--1------|
D|--2-----3--2-----3--|--2--3--2------|
A|--2-----3--2-----3--|--2--3--2------|
E|--0-----1--0-----1--|--0--1--0------|

Verse:
Repeat Rhythm Figure 1 (2 times)
Repeat Riff 1
Play Riff 4

Riff 4 w/Guitar 1(Distortion):
e|--------------------------------------------------------------------|
B|-------3------------------------------------------------------------|
G|--2h4-----4---------------------------------------------------------|
D|---------------4--3--2------------------------------4--3--2---------|
A|--------------------------------------0-----0--2--------------------|
E|----------------------------0------3-----3-----------------------0--|

Pre Chorus:
Repeat Riff 3

Solo:
One Guitar played The Rhythm Figure 2 with distortion and the other plays the next solo:

e|----------------------------|----------------------------|  |
B|----------------------------|----------------------------|  |
G|--11----11-11-14--16----16--|------11--11--14--16----11--|  |
D|---x-----x--x--x---x-----x--|-------x---x---x---x-----x--|  |
A|---9-----9--9-12--14----14--|-------9---9--12--14-----9--|  |
E|----------------------------|----------------------------|  |
|Repeat 2 times
e|----------------------------|----------------------------|  |
B|----------------------------|----------------------------|  |
G|------11--11--14--16--------|--13-----16--12-------------|  |
D|-------x---x---x---x--------|---x------x---x-------------|  |
A|-------9---9--12--14--------|--11-----14--10-------------|  |
E|----------------------------|----------------------------|  |

Chorus:
Repeat Rythm Figure 2

Outro:
Repeat Intro 4 times but the last bar goes like this:

e|-----------------------------|
B|-----------------------------|
G|-------------9---------------|
D|----9--9--9--9--9------------|
A|---11-11-11-11-10------------|
E|-----------------------------|


| /  slide up
|   slide down
| h  hammer-on
| p  pull-off
| ~  vibrato
| +  harmonic
| x  Mute note
===============================================================================

In addition to Chords / Tabs Lifehouse - Somebody Elses Song (First Version), we offer an excerpt from a random book.At Universal Studios Florida theme park, my music plays before the show.

LiveInternet