AllChordsTabs.com

Mark Knopfler - Je Suis DГ©SolГ© (First Version) Chords and Tabs


Artists:
Chords and Tabs » M » Mark Knopfler - Je Suis DГ©SolГ© (First Version)

Mark Knopfler - Je Suis DГ©SolГ© (First Version)

Mark Knopfler - Je Suis DГ©SolГ© (First Version) Chords / Tabs

Mark Knopfler - Je Suis DГ©SolГ© First Version: chords and tabs for the song. Watch chords and tablatures for all songs of the singer (group) Mark Knopfler. Other chords and tabs for the "Je Suis DГ©SolГ©" can find at the bottom of the page.

[Intro]

[INFO]
parts A & B are quite similar in notes but vary in syncopation.

part A
Bm  | Bm  | Bm  | Bm  | Bm  | Bm   | A | E |

e|---------------------------5--------------------------------|
B|----7-7------------7---5/7---7-7-5-------5-4-5--------------|
G|-------9p7------7p9----------------7-4-7--------------------|
D|-7h9------9--7-9--------------------------------------------|
A|------------------------------------------------------------|
E|------------------------------------------------------------|

part B
Bm  | Bm  | Bm  | Bm  | Bm  | Bm  | A | E |

e|--------------------------5---------------------------------|
B|----7-7----------/7---5/7---7-7-5-------5-4-5---------------|
G|-------9p7------7----------------7--4-7---------------------|
D|-7/9------9--7-9--------------------------------------------|
A|------------------------------------------------------------|
E|------------------------------------------------------------|

part C
G  | G  | G  | Bm  | Bm  | Bm  |  Bm

e|-------------------------------------------------|
B|-------------------------------------------------|
G|-7- ----7--6----4--------------------------------|
D|----------7---------4p2p0--------0h4-0-----------|
A|--------------------------2---0h2------2---------|
E|-------------------------------------------------|
PM ==========|

variation on part B (from solo, album version 3:34)

Bm   | Bm   | Bm   | Bm   | Bm   | Bm   | A | E |

e|----------------------------------------5-------------------|
B|-7--------7-----7------7----7----7--5/7--7-7-5------5-4-5---|
G|--9-7------9-7h9----7h9--7h9--7h9-------------7-4-7---------|
D|-----9-7---------9------------------------------------------|
A|------------------------------------------------------------|
E|------------------------------------------------------------|

In addition to Chords / Tabs Mark Knopfler - Je Suis DГ©SolГ© (First Version), we offer an excerpt from a random book.Oh, if I were quiet as thunder, I would whine, the decrepit skete would tremble around the earth.

LiveInternet