AllChordsTabs.com

Kings Of Leon - Head To Toe (First Version) Chords and Tabs


Artists:
Chords and Tabs » K » Kings Of Leon - Head To Toe (First Version)

Kings Of Leon - Head To Toe (First Version)

Kings Of Leon - Head To Toe (First Version) Chords / Tabs

Kings Of Leon - Head To Toe First Version: chords and tabs for the song. Watch chords and tablatures for all songs of the singer (group) Kings Of Leon. Other chords and tabs for the "Head To Toe" can find at the bottom of the page.

Group/Singer Name:      Kings Of Leon
Additional Info:        Track 02 on the "Four Kicks" Single. (1st word of Verse 1 not known.
It's typed as I think it sounds!)
Tuning:                 Standard - [EADGBe]


[Chords Used]   E(022100); C#m(9[11][11]999); B(799877); Bb(688766);
E*([12][14][14][13][12][12]); G(355433); Em([12][14][14][12][12][12])


[Intro]         Oh he's such a sucker from her head to her toes,
Oh he's such a sucker from her head to her toe.

|E             |E              |E              |E              |


[Verse 1]       E
[Pro-o-o-o-zay-sha], Mississippi relator,
E
He's searchin' for the softball diamond,
E
Prancin' like a bad-ass and never seen a church house,
E
Another jolly face in the choir.


[Bridge]             C#m                        B
He's speakin' and a kissin' her mouth.


[Chorus 1]      E
Oh he's such a sucker from her head to her toes,
E
Oh he's such a sucker from her head to her toe.

|E             |E              |


[Verse 2]       E
Screamin' at the cousin, like he never gets no lovin',
E
The hairy monkey's covered tonight,
E
Fallin' over tables and black-eyed with no way home,
E
A poutin' underneath the street lights.


[Bridge]             C#m                        B
He's speakin' and a kissin' her mouth.


[Chorus 2]      E
Oh he's such a sucker from her head to her toes,
E
Oh he's such a sucker from her head to her toe.
C#m                         B
And no-one seems to like it out loud.
E
Oh he's such a sucker from her head to her toe,
E
Oh he's such a sucker from her head to her toe.


[Middle 8/Solo] | 1 & 2 & 3 & 4 & | 1 & 2 & 3 & 4 & | 1 & 2 & 3 & 4 & | 1 & 2 & 3 & 4 & |
|-----------------|-----------------|-----------------|-----------------|
| Bb              | Bb      E*      | E*      Bb      | Bb              |
| B  G    E       | E               | E       |


[Chorus 3]     (E)
Oh he's such a sucker from her head to her toes,
(E)
Oh he's such a sucker from her head to her toes,
(E)
Oh he's such a sucker from her head to her toe,
(E)
Oh he's such a sucker from her head to her toe.


[Outro]         Em
Oh he's such a sucker from her head to her toes,
Em
Oh he's such a sucker from her head to her toe.

|Em            |Em             |Em              |






*******************************************
*    KINGS OF LEON - HEAD TO TOE - TAB    *
*******************************************



b  -  Bend
sb -  Slow Bend
() -  Bracketed numbers are the note you bend up to
h  -  Hammer On
p  -  Pull Off
r  -  Return
/  -  Slide Up
  -  Slide Down
d  -  Strum Down
u  -  Strum Up
PM -  Palm Mute
<> -  Natural Harmonics
^  -  Vibrato







[Intro] - [CALEB] @ 00:06 X2
[Let Ring]--В¬
E                                            |
e |-0-----0--------0-----0--------0-----0--------0-------------------------------------|
B |-0-----0--------0-----0--------0-----0--------0-------------------------------------|
G |-1-----1--x-1---1-----1--x-1---1-----1--x-1---1-------------------------------------|
D |-2-----2--x-2---2-----2--x-2---2-----2--x-2---2-------------------------------------|
A |-2-----2--x-2---2-----2--x-2---2-----2--x-2---2-------------------------------------|
E |----------x-0------------x-0------------x-0-----------------------------------------|
u     u  d u   u     u  d u   u     u  d u   u


- [MATTHEW] @ 00:06 X2

e |------------------------------------------------------------------------------------
B |------------------------------------------------------------------------------------
G |------------------------------------------------------------------------------------
D |----------------------------------------------2-------------------------------------
A |-------7--------------------------------------2-------------------------------------
E |-0----0-0-9-7---0----070-5-4---0----050-3-2---0-------------------------------------

----------------------------------------------0-------------------------------------|
----------------------------------------------0-------------------------------------|
----------------------------------------------1-------------------------------------|
----------------------------------------------2-------------------------------------|
-------7--------------------------------------2-------------------------------------|
-0----0-0-9-7---0----070-5-4---0----050-3-2---0-------------------------------------|



[Verse 1] - [CALEB] X2 - [Play a bit softer/quieter than the intro]


"...[Pro-o-o-o-zay-sha]"             [Let Ring]--В¬
E                                            |
e |-0-----0--------0-----0--------0-----0--------0-------------------------------------|
B |-0-----0--------0-----0--------0-----0--------0-------------------------------------|
G |-1-----1--x-1---1-----1--x-1---1-----1--x-1---1-------------------------------------|
D |-2-----2--x-2---2-----2--x-2---2-----2--x-2---2-------------------------------------|
A |-2-----2--x-2---2-----2--x-2---2-----2--x-2---2-------------------------------------|
E |----------x-0------------x-0------------x-0-----------------------------------------|
u     u  d u   u     u  d u   u     u  d u   u


- [MATTHEW] (NOTHING PLAYED)



[Bridge] - [CALEB]

"...speakin' and a kissin' her mouth.

C#m                        B
e |------------------------------------------------------------------------------------|
B |-9--------------------------7-------------------------------------------------------|
G |-9--------------------------8-------------------------------------------------------|
D |-11-------------------------9-------------------------------------------------------|
A |-11-------------------------9-------------------------------------------------------|
E |-9--------------------------7-------------------------------------------------------|


- [MATTHEW]

"...speakin' and a kissin' her mouth.

C#m                    G#  B
e |------------------------------------------------------------------------------------|
B |-5----------------------------------------------------------------------------------|
G |-6----------------------5-/-8-------------------------------------------------------|
D |-6----------------------6-/-9-------------------------------------------------------|
A |-4----------------------6-/-9-------------------------------------------------------|
E |------------------------4-/-7-------------------------------------------------------|



[Chorus 1] - [CALEB] X2

E
e |-0-----0----0---0-----0----0---0-----0----0---0-----0----0--------------------------
B |-0-----0----0---0-----0----0---0-----0----0---0-----0----0--------------------------
G |-1-----1----1---1-----1----1---1-----1----1---1-----1----1--------------------------
D |-2-----2--------2-----2--------2-----2--------2-----2-------------------------------
A |-2-----2--------2-----2--------2-----2--------2-----2-------------------------------
E |------------------------------------------------------------------------------------
u     u    u   u     u    u   u     u    u   u     u

[Let Ring]--В¬
E                                            |
-0-----0--------0-----0--------0-----0--------0-------------------------------------|
-0-----0--------0-----0--------0-----0--------0-------------------------------------|
-1-----1--x-1---1-----1--x-1---1-----1--x-1---1-------------------------------------|
-2-----2--x-2---2-----2--x-2---2-----2--x-2---2-------------------------------------|
-2-----2--x-2---2-----2--x-2---2-----2--x-2---2-------------------------------------|
----------x-0------------x-0------------x-0-----------------------------------------|
u     u  d u   u     u  d u   u     u  d u   u


- [MATTHEW]

E
e |------------------------------------------------------------------------------------
B |------------------------------------------------------------------------------------
G |-1-----1--------1-----1--------1-----1--------1-----1-------------------------------
D |-2-----2--------2-----2--------2-----2--------2-----2-------------------------------
A |-2-----2--------2-----2--------2-----2--------2-----2-------------------------------
E |-0-----0--------0-----0--------0-----0--------0-----0-------------------------------

----------------------------------------------0-------------------------------------|
----------------------------------------------0-------------------------------------|
----------------------------------------------1-------------------------------------|
----------------------------------------------2-------------------------------------|
-------7--------------------------------------2-------------------------------------|
-0----0-0-9-7---0----070-5-4---0----050-3-2---0-------------------------------------|



[Verse 2] - [CALEB] X2 - [Play a bit softer/quieter than the intro]


[Let Ring]--В¬
E                                            |
e |-0-----0--------0-----0--------0-----0--------0-------------------------------------|
B |-0-----0--------0-----0--------0-----0--------0-------------------------------------|
G |-1-----1--x-1---1-----1--x-1---1-----1--x-1---1-------------------------------------|
D |-2-----2--x-2---2-----2--x-2---2-----2--x-2---2-------------------------------------|
A |-2-----2--x-2---2-----2--x-2---2-----2--x-2---2-------------------------------------|
E |----------x-0------------x-0------------x-0-----------------------------------------|
u     u  d u   u     u  d u   u     u  d u   u


- [MATTHEW] (NOTHING PLAYED)



[Bridge] - [CALEB]

"...speakin' and a kissin' her mouth.

C#m                        B
e |------------------------------------------------------------------------------------|
B |-9--------------------------7-------------------------------------------------------|
G |-9--------------------------8-------------------------------------------------------|
D |-11-------------------------9-------------------------------------------------------|
A |-11-------------------------9-------------------------------------------------------|
E |-9--------------------------7-------------------------------------------------------|


- [MATTHEW]

"...speakin' and a kissin' her mouth.

C#m                    G#  B
e |------------------------------------------------------------------------------------|
B |-5----------------------------------------------------------------------------------|
G |-6----------------------5-/-8-------------------------------------------------------|
D |-6----------------------6-/-9-------------------------------------------------------|
A |-4----------------------6-/-9-------------------------------------------------------|
E |------------------------4-/-7-------------------------------------------------------|



[Chorus 2] - [CALEB] X2

E
e |-0-----0----0---0-----0----0---0-----0----0---0-----0----0--------------------------|
B |-0-----0----0---0-----0----0---0-----0----0---0-----0----0--------------------------|
G |-1-----1----1---1-----1----1---1-----1----1---1-----1----1--------------------------|
D |-2-----2--------2-----2--------2-----2--------2-----2-------------------------------|
A |-2-----2--------2-----2--------2-----2--------2-----2-------------------------------|
E |------------------------------------------------------------------------------------|
u     u    u   u     u    u   u     u    u   u     u

"...no-one seems to like it out loud.

C#m                         B
------------------------------------------------------------------------------------
------------------------------------------------------------------------------------
-9---------------------------8------------------------------------------------------
-11--------------------------9------------------------------------------------------
-11--------------------------9------------------------------------------------------
-9---------------------------7------------------------------------------------------

E
-0-----0----0---0-----0----0---0-----0----0---0-----0----0--------------------------|
-0-----0----0---0-----0----0---0-----0----0---0-----0----0--------------------------|
-1-----1----1---1-----1----1---1-----1----1---1-----1----1--------------------------|
-2-----2--------2-----2--------2-----2--------2-----2-------------------------------|
-2-----2--------2-----2--------2-----2--------2-----2-------------------------------|
------------------------------------------------------------------------------------|
u     u    u   u     u    u   u     u    u   u     u


- [MATTHEW]

E
e |------------------------------------------------------------------------------------
B |------------------------------------------------------------------------------------
G |-1-----1--------1-----1--------1-----1--------1-----1-------------------------------
D |-2-----2--------2-----2--------2-----2--------2-----2-------------------------------
A |-2-----2--------2-----2--------2-----2--------2-----2-------------------------------
E |-0-----0--------0-----0--------0-----0--------0-----0-------------------------------

"...no-one seems to like it out loud.

C#m                     G#  B
------------------------------------------------------------------------------------
-5----------------------------------------------------------------------------------
-6-----------------------5-/-8------------------------------------------------------
-6-----------------------6-/-9------------------------------------------------------
-4-----------------------6-/-9------------------------------------------------------
-------------------------4-/-7------------------------------------------------------

------------------------------------------------------------------------------------|
------------------------------------------------------------------------------------|
-1-----1--------1-----1--------1-----1--------1-----1-------------------------------|
-2-----2--------2-----2--------2-----2--------2-----2-------------------------------|
-2-----2--------2-----2--------2-----2--------2-----2-------------------------------|
-0-----0--------0-----0--------0-----0--------0-----0-------------------------------|



[Middle 8/Solo] - [CALEB]

Bb                                   E*
e |-6--6-----6-----6-----6-----6-----6---12--12----12-12--12---12-12-------------------
B |-6--6-----6-----6-----6-----6-----6---12--12----12-12--12---12-12--0----------------
G |-7--7-----7-----7-----7-----7-----7---13--13----13-13--13---13-13--0----------------
D |-8--8-----8-----8-----8-----8-----8---14--14----14-14--14---14-14--0----------------
A |-8--8-----8-----8-----8-----8-----8---14--14----14-14--14---14-14--0----------------
E |-6--6-----6-----6-----6-----6-----6---12--12----12-12--12---12-12-------------------

Bb                                   B       G      E
-6--6-----6-----6-----6-----6---------777-7---3--3---0------------------------------|
-6--6-----6-----6-----6-----6---------777-7---3--3---0------------------------------|
-7--7-----7-----7-----7-----7---------888-8---4--4---1------------------------------|
-8--8-----8-----8-----8-----8---------999-9---5--5---2------------------------------|
-8--8-----8-----8-----8-----8---------999-9---5--5---2------------------------------|
-6--6-----6-----6-----6-----6---------777-7---3--3---0------------------------------|


- [MATTHEW]

e |-9-9-9-9--------------9-----------------------9-9-9-9-------------------------------
B |-9-9-9-9---------6----9---------6----9-----6--9-9-9-9---------6---------------------
G |----------10--8--6-------10--8--6-------8--6-----------10--8--6-/-12--14-12--14b(16)
D |------------------------------------------------------------------------------------
A |------------------------------------------------------------------------------------
E |------------------------------------------------------------------------------------


--------------12-------12--12--12---15b(17)-12-----12-----15b(17)-12-----12---------
-12--12-12-12-15b(17)-(17)(17)(17)----------15b(17)15b(17)--------15b(17)15b(17)----
------------------------------------------------------------------------------------
------------------------------------------------------------------------------------
------------------------------------------------------------------------------------
------------------------------------------------------------------------------------

B     G      E
-12-------15p12--15b(17)--15--12--------7-7---3------0------------------------------|
-15b(17)--------------------------------7-7---3------0------------------------------|
----------------------------------------8-8---4------1------------------------------|
----------------------------------------9-9---5------2------------------------------|
----------------------------------------9-9---5------2------------------------------|
----------------------------------------7-7---3------0------------------------------|



[Chorus 3] - NOTHING PLAYED BUT BASS AND DRUMS UNTIL...

- [MATTHEW] @ 01:37 (Start off Palm Muted and then play full)

E5
e |------------------------------------------------------------------------------------|
B |------------------------------------------------------------------------------------|
G |-99--99--99--99--99--99--99--99--99--99--99--99--99--99--99--9----------------------|
D |-99--99--99--99--99--99--99--99--99--99--99--99--99--99--99--9----------------------|
A |-77--77--77--77--77--77--77--77--77--77--77--77--77--77--77--7----------------------|
E |------------------------------------------------------------------------------------|



[Outro] - [CALEB] @ 01:42

Em
e |------------------------------------------------------------------------------------
B |------------------------------------------------------------------------------------
G |-12----12---12--14----12---12--12----12---12--12----12---12-------------------------
D |-14----14---14--12----14---14--14----14---14--14----14---14-------------------------
A |-14----14---14--14----14---14--14----14---14--14----14---14-------------------------
E |-12----12-------12----12-------12----12-------12----12------------------------------

Em
------------------------------------------------------------------------------------
------------------------------------------------------------------------------------
-12----12---12--14----12---12--12----12---12--12----12---12-------------------------
-14----14---14--12----14---14--14----14---14--14----14---14-------------------------
-14----14---14--14----14---14--14----14---14--14----14---14-------------------------
-12----12-------12----12-------12----12-------12----12------------------------------

Em
--0---------------------------------------------------------------------------------|
--0---------------------------------------------------------------------------------|
--0---------------------------------------------------------------------------------|
-14--LET CHORD RING-----------------------------------------------------------------|
-14---------------------------------------------------------------------------------|
-12---------------------------------------------------------------------------------|


- [MATTHEW]

Em
e |-7-----7--------7-----7--------7-----7--------7-----7-------------------------------
B |-8-----8--------8-----8--------8-----8--------8-----8-------------------------------
G |-9-----9--------9-----9--------9-----9--------9-----9-------------------------------
D |-9-----9--------9-----9--------9-----9--------9-----9-------------------------------
A |-7-----7--------7-----7--------7-----7--------7-----7-------------------------------
E |------------------------------------------------------------------------------------

Em
-7-----7----7---7-----7----7---7-----7----7---7-----7----7--------------------------
-8-----8----8---8-----8----8---8-----8----8---8-----8----8--------------------------
-9-----9----9---9-----9----9---9-----9----9---9-----9----9--------------------------
-9-----9----9---9-----9----9---9-----9----9---9-----9----9--------------------------
-7-----7----7---7-----7----7---7-----7----7---7-----7----7--------------------------
------------------------------------------------------------------------------------

Em
-7----------------------------------------------------------------------------------|
-8----------------------------------------------------------------------------------|
-9---LET CHORD RING-----------------------------------------------------------------|
-9----------------------------------------------------------------------------------|
-7----------------------------------------------------------------------------------|
------------------------------------------------------------------------------------|

In addition to Chords / Tabs Kings Of Leon - Head To Toe (First Version), we offer an excerpt from a random book.Well, as expected, they wrapped them up in a teahouse And girgirkali for a long time over a glass for three.

LiveInternet