AllChordsTabs.com

Less Than Jake - Cheeze (First Version) Chords and Tabs


Artists:
Chords and Tabs » L » Less Than Jake - Cheeze (First Version)

Less Than Jake - Cheeze (First Version)

Less Than Jake - Cheeze (First Version) Chords / Tabs

Less Than Jake - Cheeze First Version: chords and tabs for the song. Watch chords and tablatures for all songs of the singer (group) Less Than Jake. Other chords and tabs for the "Cheeze" can find at the bottom of the page.

-|--------------|--------------------------|---------------------------------
-|--------------|--------------------------|---------------------------------
-|---------7----|--------------------7777--|---------------------------------
-|--7------7----|--7777777----4444---7777--|---------------------------------
-|--7------5----|--7777777----4444---5555--|-x2------------------------------
-|--5-----------|--5555555----2222---------|---------------------------------
intro        chorus

-|-55x5x5x-7x7x7-5555----------------5----10---------------------------------
-|-55x5x5x-9x9x9-7777----------------7----10---------------------------------
-|-66x6x6x-9x9x9-7777----------------7----11---------------------------------
-|-77x7x7x-9x9x9-7777----------------7----12---------------------------------
-|---------------------------------------------------------------------------
-|---------------------------------------------------------------------------
ska verse                     at end of 4th time

In addition to Chords / Tabs Less Than Jake - Cheeze (First Version), we offer an excerpt from a random book.From behind the cloud the siren stuck the leg down, The cannibal at the gentleman's Obscene bit off.

LiveInternet