AllChordsTabs.com

Linkin Park - Faint Real Thing (First Version) Chords and Tabs


Artists:
Chords and Tabs » L » Linkin Park - Faint Real Thing (First Version)

Linkin Park - Faint Real Thing (First Version)

Linkin Park - Faint Real Thing (First Version) Chords / Tabs

Linkin Park - Faint Real Thing First Version: chords and tabs for the song. Watch chords and tablatures for all songs of the singer (group) Linkin Park. Other chords and tabs for the "Faint Real Thing" can find at the bottom of the page.

Guitrist:Mike Shinoda Brad Delson


Intro - Voilins Arranged For Guitar
-22-----------22--------------------------------------------------------------
-------------------------20/22--------2015-------2015-----2015------2015--


-22-----------------------------------------------------|---------------------
--------------20/22-------2015-----2015-----2015-----|---------------------
--------------------------------------------------------|--7--7--7--7---------
--------------------------------------------------------|--x--x--x--x---------
--------------------------------------------------------|--5--5--5--5---------
--------------------------------------------------------|---------------------

Guitar 1 - Brad
-7--7--7-0-14--12--12--12--12--12--14--14--10--10----------------------------
-x--x--x-0--x--------x-------x---x---x---x--------x---------------------------- x 4
-5--5--5-0-12--10--10--10--10--10--12--12---8---8----------------------------

Guitar 2 - Mike
-0-0-0-0-0-0-0-5-5-5-5-5-5-5-8-8-8-8-8-8-8-5-5-5-7-3-3-3---------------------- x 2
-0-0-0-0-0-0-0-3-3-3-3-3-3-3-8-8-8-8-8-8-8-5-5-5-7-3-3-3----------------------
-0-0-0-0-0-0-0-3-3-3-3-3-3-3-8-8-8-8-8-8-8-5-5-5-7-3-3-3----------------------

Verse 1 - Both Guitars Only Guitar 1
------------------------------------------------------------|-----------------
------------------------------------------------------------|-----------------
------------------------------------------------------------|--7--7--7--7-----
-0------------0------------0-----------------10-10---5-5----|--x--x--x--x-----
-0------------0------------0------------------8--8---3-3----|--5--5--5--5-----
-0------------0------------0------------------8--8---3-3----|-----------------

Chorus - Both Guitars x2 Guitar 2 plays this
--------------------------------------------------------|---------------------
--------------------------------------------------------|---------------------
--------------------------------------------------------|---------------------
-0-0-0-0-0-0-0-5-5-5-5-5-5-5-8-8-8-8-8-8-8-5-5-5-7-3-3-3|-5-5-5-5-5-5-5-5-----
-0-0-0-0-0-0-0-3-3-3-3-3-3-3-8-8-8-8-8-8-8-5-5-5-7-3-3-3|-3-3-3-3-3-3-3-3-----
-0-0-0-0-0-0-0-3-3-3-3-3-3-3-8-8-8-8-8-8-8-5-5-5-7-3-3-3|-3-3-3-3-3-3-3-3-----

Guitar 1 plays this
---------------------------------------------------|--------------------------
---------------------------------------------------|--------------------------
---------------------------------------------------|10-10-10-10-10-10-10-10---
---------------------------------------------------|-x--x--x--x--x--x--x--x---
---------------------------------------------------|-8--8--8--8--8--8--8--8---
---------------------------------------------------|--------------------------

verse 2 - both guitars Both this time
------------------------------------------------------------|-----------------
------------------------------------------------------------|-----------------
------------------------------------------------------------|--7--7--7--7-----
-0------------0------------0----------------10-10---5-5-----|--x--x--x--x-----
-0------------0------------0-----------------8--8---3-3-----|--5--5--5--5-----
-0------------0------------0-----------------8--8---3-3-----|-----------------

chorus - both guitars x2 guitar 2
--------------------------------------------------------|---------------------
--------------------------------------------------------|---------------------
--------------------------------------------------------|---------------------
-0-0-0-0-0-0-0-5-5-5-5-5-5-5-8-8-8-8-8-8-8-5-5-5-7-3-3-3|-5-5-5-5-5-5-5-5-----
-0-0-0-0-0-0-0-3-3-3-3-3-3-3-8-8-8-8-8-8-8-5-5-5-7-3-3-3|-3-3-3-3-3-3-3-3-----
-0-0-0-0-0-0-0-3-3-3-3-3-3-3-8-8-8-8-8-8-8-5-5-5-7-3-3-3|-3-3-3-3-3-3-3-3-----

guitar 1
---------------------------------------------------|--------------------------
---------------------------------------------------|--------------------------
---------------------------------------------------|10-10-10-10-10-10-10-10---
---------------------------------------------------|-x--x--x--x--x--x--x--x---
---------------------------------------------------|-8--8--8--8--8--8--8--8---
---------------------------------------------------|--------------------------

Bridge -- both guitars
-0-----7----3----2----3----2------0-------0------7----3----2----3----2--------
-0-----7----3----2----3----2------0-------0------7----3----2----3----2-------- x 4
-0-----7----3----2----3----2------0-------0------7----3----2----3----2--------

Interlude - guitar 1 Guitar 1 | Syth. arranged for guitar guitar 1
-22-------------------------------------|-----------------------------------|-
----------20/22---2015--2015--2015---|-----------------------------------|-
----------------------------------------|-----------------------------------|-
----------------------------------------|-0-0-0-0-0-0-0-0-0-0-0-0-0-0-0-0---|-
----------------------------------------|-----------------------------------|-
----------------------------------------|-----------------------------------|-

Chorus -- both guitars x2
-0-0-0-0-0-0-0-5-5-5-5-5-5-5-8-8-8-8-8-8-8-5-5-5-7-3-3-3----------------------
-0-0-0-0-0-0-0-3-3-3-3-3-3-3-8-8-8-8-8-8-8-3-3-3-7-3-3-3----------------------
-0-0-0-0-0-0-0-3-3-3-3-3-3-3-8-8-8-8-8-8-8-3-3-3-7-3-3-3----------------------

Ending - Guitar 1 riff a ( Join in to Guitar 2 riff b after 2 times)
-7--7--7--14--14--12--12--12--12--12--14--14--10--10------------------------
-x--x--x---x---x--------x-------x---x---x---x--------x------------------------ x 2
-5--5--5--12--12---10--10--10--10--10--12--12---8---8------------------------

Guitar 2 - riff a
-0---0---0---0---0---0---0---5---5---5-----7---3---3---3---------------------- x1*
-0---0---0---0---0---0---0---3---3---3----7---3---3---3----------------------
-0---0---0---0---0---0---0---3---3---3-----7---3---3---3----------------------
* on "time wont heal" play again
Riff b
-8---8---8---8---8---8---8---5---5---5-----7---3---3---3----------------------
-8---8---8---8---8---8---8---5---5---5----7---3---3---3----------------------x1*
-8---8---8---8---8---8---8---5---5---5-----7---3---3---3----------------------
* on second "dont turn your back on me" only play the 8's

Guitar 2 riff a again x1 Guitar 1 play Guitar 1 riff a x 2



play this when chester says - " I wont be ignored"

Guitar 2
-10---10---10---10---8----8----8----8-----------------------------------------
--x----x----x----x---x----x----x----x-----------------------------------------
--8----8----8----8---6----6----6----6-----------------------------------------

guitar 1
-5----5----5----5----1----1----1----1-----------------------------------------
-3----3----3----3----1----1----1----1-----------------------------------------
-3----3----3----3----1----1----1----1-----------------------------------------

outro - syth. arranged for guitar
-0----0----0----0------0----0----0----0---------------------------------------

In addition to Chords / Tabs Linkin Park - Faint Real Thing (First Version), we offer an excerpt from a random book.In addition, everyone is crazy about Italian opera, Garcia made a huge splash.

LiveInternet