AllChordsTabs.com

Clapton Eric - Layla Main (First Version) Chords and Tabs


Artists:
Chords and Tabs » C » Clapton Eric - Layla Main (First Version)

Clapton Eric - Layla Main (First Version)

Clapton Eric - Layla Main (First Version) Chords / Tabs

Clapton Eric - Layla Main First Version: chords and tabs for the song. Watch chords and tablatures for all songs of the singer (group) Clapton Eric. Other chords and tabs for the "Layla Main" can find at the bottom of the page.

(Riff)
Eric Clapton a.k.a God

Layla

OK the really cool wailing part goes like this:

e-----------10-13---10------10--13-13-12------10--
B----10-13--------------13----------------13------
G-------------------------------------------------
D-------------------------------------------------
A-------------------------------------------------
E-------------------------------------------------

e-----------10-13---10------10--13-13-12----------
B----10-13--------------13----------------13~~----
G-------------------------------------------------
D-------------------------------------------------
A-------------------------------------------------
E-------------------------------------------------

~~ = hold note

You will have to play this pretty quickly...work on hitting the right
notes first,then build up your speed...it's no good learning to hit the
wrong notes as fast as you can! =P

Sounds good with a lil bit of distortion and some chorus too if you like.
Play around with some pedals to make it sound good.

Any questions, bribes or mindless nonsense to:

LiveInternet