AllChordsTabs.com

Osborne Joan - One Of Us (First Version) Chords and Tabs


Artists:
Chords and Tabs » O » Osborne Joan - One Of Us (First Version)

Osborne Joan - One Of Us (First Version)

Osborne Joan - One Of Us (First Version) Chords / Tabs

Osborne Joan - One Of Us First Version: chords and tabs for the song. Watch chords and tablatures for all songs of the singer (group) Osborne Joan. Other chords and tabs for the "One Of Us" can find at the bottom of the page.

Greetings from good old germany to all you guitar maniacs in the world!
I%d like to add another version of the guitar solo of "One Of Us".
IMHO, it%s a rather complete transcription. I posted it, %cause I think
that the  previous tabs are incomplete as for some bars.

Hints: The solo is played by using the standard E-A-D-G-B-E tuning with a
warm fuzz sound. For each bar there%s the time measure noticed,  so it%s
more convenient to figure out the timing. Mainly the solo consists of eighth
notes with some sixteenth added. It%s rather easy to play, once you have
understood the phrasing of the melody. The only difficulty appears in bar 13,
where I remarked "hold bend". This bar holds a kind of playing technique
that is often used in country rock. I call it "double stop bending". To play
it correctly, put the first finger (left hand) on the 14th fret of the B-string
and the third finger on the 16th fret G-string and immediately bend up
to the 18th fret G-string. The following C sharp notes are played
while holding the bend. Same with the following combination.

Have fun and feel free to give some coments.
Keep on rockin and posting tabs.

--|--2-------|----------------------|-------------------|---------------------
--|--3-2-2---|2-2-2-2-2b3r2-2-2-2p0-|-2-----2-----2-----|-2-2-2b3r2-----------
--|--2-------|----------------------|-------------------|---2-------4p2-4-----
--|---------0|----------------------|---0-2---0-2---0h2-|-----------------2-2-
--|----------|----------------------|-------------------|---------------------
--|----------|----------------------|-------------------|---------------------
1+2+3+4+ 1 + 2 + 3     + 4 +     1 + 2 + 3 + 4 +     1 + 2     +   3 + 4

---|-------------------------|---------------7-7-|-7/9-9-9-9-9-9p7-7-7--------
---|-2-2-2h0---------5-5---5-|-7---9-9-10-10-----|-7---7-7-7-7-7-------10-10--
-2-|---------2-2-4/6-----6---|---7---------------|----------------------------
---|-------------------------|-------------------|----------------------------
---|-------------------------|-------------------|----------------------------
---|-------------------------|-------------------|----------------------------
+   1 + 2   +   3   + 4 +     1 + 2 + 3  +  4 +   1   + 2 +   3   + 4 +

-|----------------------------|------------------------|----------------------
-|-10p9-9-9-9p7-----7---------|-2-2-2-2--2-2h0-0-0-----|----------------------
-|-9------------9-9---9-6-2h4-|--------------------1-2-|-2-2-2-2p1-1/2--------
-|----------------------------|--------------------2---|---------------4b6r4--
-|----------------------------|------------------------|----------------------
-|----------------------------|------------------------|----------------------
1    +   2   +   3 + 4 +     1 +   2 +  3   + 4 +     1 +   2   +   3

---------|-----------------------------------|-14----------14-----------------
---------|---7-------------14----------------|-------12/14----1412-12-12-12--
---------|-----11h13p11h14----14-11h13p11h14-|----14--------------------------
-2-2-2h4-|-7---------------------------------|--------------------------------
---------|-----------------------------------|--------------------------------
---------|-----------------------------------|--------------------------------
+ 4 +     1 + 2     +     3  +  4     +       1  +  2           3        4

-------|--------------------------------------------------|-------------------
-------|-14----14-14-14---14-------17---17-17-17-17-------|-------------------
-14-16-|-16b18---------------14-16-16b18------------18r16-|-14-14-14-14-------
-------|--------------------------------------------------|-------------------
-------|--------------------------------------------------|-------------------
-------|--------------------------------------------------|-------------------
+       1 hold   +  bend 2  +     3 hold  + bend 4 +       1  +     2

---------------------------|--------------------------------------------------
---------------------------|--------------------------------------------------
-1413-13-13-13------------|--------------------------------------------------
----------------16-16-14---|-4------------------------------------------------
---------------------------|--------------------------------------------------
---------------------------|--------------------------------------------------
+     3     +     4   +     1

LiveInternet