AllChordsTabs.com

Brickell Edie - This Is Not How You Eat Watermelon (First Version) Chords and Tabs


Artists:
Chords and Tabs » B » Brickell Edie - This Is Not How You Eat Watermelon (First Version)

Brickell Edie - This Is Not How You Eat Watermelon (First Version)

Brickell Edie - This Is Not How You Eat Watermelon (First Version) Chords / Tabs

Brickell Edie - This Is Not How You Eat Watermelon First Version: chords and tabs for the song. Watch chords and tablatures for all songs of the singer (group) Brickell Edie. Other chords and tabs for the "This Is Not How You Eat Watermelon " can find at the bottom of the page.

[Verse]

D|------------------------------------------------------------------------------------|
A|------------------------------------------------------------------------------------|
F|----5-------7-------5-------7-------5/7-------5-------7-------5-------7-------9-----|
C|------------------------------------------------------------------------------------|
G|----3-------5-------3-------5-------3/5-------3-------5-------3-------5-------7-----|
C|00-----0-0-----0-0-----0-0-----0-0-------0-0-----0-0-----0-0-----0-0-----0-0--------|

D|------------------------------------------------------------------------------------|
A|------------------------------------------------------------------------------------|
F|----5-------7-------5-------7-------5/7-------5-------7-------5-------3-------3/5---|
C|------------------------------------------------------------------------------------|
G|----3-------5-------3-------5-------3/5-------3-------5-------3-------1-------1/3---|
C|00-----0-0-----0-0-----0-0-----0-0-------0-0-----0-0-----0-0-----0-0-----0-0--------|


[Chorus]

D|------------------------------------------------------------------------------------------|
A|------------------------------------------------------------------------------------------|
F|555555----7-7-7-7-7----9-9-9-9-9-9----1111111111-------5-5-5--7-7-7--9-9-9--111111--------|
C|------------------------------------------------------------------------------------------|
G|333333----5-5-5-5-5----7-7-7-7-7-7----9-9-9-9-9--------3-3-3--5-5-5--7-7-7--9-9-9---------|
C|------------------------------------------------------------------------------------------|

D|---------------------------------------------------------------------------|
A|---------------------------------------------------------------------------|
F|5/77777--------7/9999--------5---------------------------------------------|
C|---------------------------------------------------------------------------|
G|3/55555--------5/7777--------3---------------------------------------------|
C|---------------------------------------------------------------------------|

[Verse]

[Chorus x2]

[Breakdown]

D|-------------------------------------------------------------------------------|
A|-------------------------------------------------------------------------------|
F|-------------------------------------------------------------------------------|
C|-------------------------------------------------------------------------------|
G|---------------------------------------------------*3*~------------------------|
C|0-0-0--3-202--0-0-0--3-20--0-0-0--3-232--0-0-0--3-2----------------------------|

[Chorus x2.5]

LiveInternet