AllChordsTabs.com

X - Were Desperate (First Version) Chords and Tabs


Artists:
Chords and Tabs » X » X - Were Desperate (First Version)

X - Were Desperate (First Version)

X - Were Desperate (First Version) Chords / Tabs

X - We're Desperate First Version: chords and tabs for the song. Watch chords and tablatures for all songs of the singer (group) X. Other chords and tabs for the "We're Desperate" can find at the bottom of the page.

somebody left a tab request for this, so this one's for him.
this woulda been submitted earlier but i was banned. i don't think i'll ever play in
forum's again.


"WE'RE DESPERATE" by -X-

|------------------------------------------------|
|------------------------------------------------|
|---7-7-7-7---------9-----7-7-7-7---------9------|
|---7-7-7-7---------9-----7-7-7-7---------9------|
|---5-5-5-5--7-7-7--7--9--5-5-5-5--7-7-7--7--9---|
|------------5-5-5-----7-----------5-5-5-----7---|

i play to hard when i oughta go to sleep
|------------------------------------------------|
|------------------------------------------------|
|---7-7-7-7---------9-----7-7-7-7---------9------|
|---7-7-7-7---------9-----7-7-7-7---------9------|
|---5-5-5-5--7-7-7--7--9--5-5-5-5--7-7-7--7--9---|
|------------5-5-5-----7-----------5-5-5-----7---|


they pick on me cuz i really got the beat
|------------------------------------------------|
|------------------------------------------------|
|---7-7-7-7---------9-----7-7-7-7---------9------|
|---7-7-7-7---------9-----7-7-7-7---------9------|
|---5-5-5-5--7-7-7--7--9--5-5-5-5--7-7-7--7--9---|
|------------5-5-5-----7-----------5-5-5-----7---|


some people give me the creeps

|------------------------------------------------|
|------------------------------------------------|
|----------------------------------10-10-10-10---|
|----------------------------------10-10-10-10---|
|--8-8-8-8-8-8-8-8-7----------------8--8--8--8---|
|--6-6-6-6-6-6-6-6-5-----------------------------|


every other week i need a new address!

|------------------------------------------------|
|------------------------------------------------|
|---7-7-7-7---------9-----7-7-7-7---------9------|
|---7-7-7-7---------9-----7-7-7-7---------9------|
|---5-5-5-5--7-7-7--7--9--5-5-5-5--7-7-7--7--9---|
|------------5-5-5-----7-----------5-5-5-----7---|

landlord landlord landlord landlord cleanin' up the mess

|------------------------------------------------|
|------------------------------------------------|
|---7-7-7-7---------9-----7-7-7-7---------9------|
|---7-7-7-7---------9-----7-7-7-7---------9------|
|---5-5-5-5--7-7-7--7--9--5-5-5-5--7-7-7--7--9---|
|------------5-5-5-----7-----------5-5-5-----7---|

our whole f**king life is a wreck
|------------------------------------------------|
|------------------------------------------------|
|----------------------------------10-10-10-10---|
|----------------------------------10-10-10-10---|
|--8-8-8-8-8-8-8-8-7----------------8--8--8--8---|
|--6-6-6-6-6-6-6-6-5-----------------------------|

we're desperate get used to it, we're desperate get used to it, its kiss or kill!
|------------------------------------------------------------|
|------------------------------------------------------------|
|------------------------------------------------------------|
|------------------------------------------------------------|
|--5-6-5-6-5-6-5-6-5-6-5-6-5-6--5-6-5-6-5-6-5-6-5-6-5-6-5-6--|
|--3-3-3-3-3-3-3-3-3-3-3-3-3-3--3-3-3-3-3-3-3-3-3-3-3-3-3-3--|


|------------------------------------------------|
|------------------------------------------------|
|---7-7-7-7---------9-----7-7-7-7---------9------|
|---7-7-7-7---------9-----7-7-7-7---------9------|
|---5-5-5-5--7-7-7--7--9--5-5-5-5--7-7-7--7--9---|
|------------5-5-5-----7-----------5-5-5-----7---|


just repeat with the second verse and yer done
-bertoast

LiveInternet