AllChordsTabs.com

Misc Traditional - Anzac Last Post (First Version) Chords and Tabs


Artists:
Chords and Tabs » M » Misc Traditional - Anzac Last Post (First Version)

Misc Traditional - Anzac Last Post (First Version)

Misc Traditional - Anzac Last Post (First Version) Chords / Tabs

Misc Traditional - Anzac Last Post First Version: chords and tabs for the song. Watch chords and tablatures for all songs of the singer (group) Misc Traditional. Other chords and tabs for the "Anzac Last Post " can find at the bottom of the page.

X 1of3  ~~~~~~   X 1of3   ~~~~~~   X1of2?  ?    ?  v  ?   ?   ?  ?  v   ? ~~~~   ?    ?
e|--------|--------|--------|--------|--------|---------|-----10-|--------|--------|-10--13-|
b|--------|--------|--------|--------|--------|---------|-11-----|--------|--------|--------|
g|------3|--10----|------3|--10----|--------|10--10-10|--------|10-10-10|-10-----|--------|
D|------8-|--------|------8-|--------|------8-|---------|--------|--------|--------|--------|
A|-----13-|--------|-----13-|--------|-----13-|---------|--------|--------|--------|--------|
E|--------|--------|--------|--------|--------|---------|--------|--------|--------|--------|
1        2        3        4        5         6        7        8        9       10


?   ?   ?  ?  v   ?  ?  v ? ?  v    ?~~~~    ?   ?    ?  ?  v  ?  ?  v  ?   ? v  ? v ? v
e|-10-----|13-10---|13-10---|--------|--------|-13--10--|------10|------10|------10|------10|
b|-----11-|------11|------11|--------|--------|---------|11------|11------|-11-----|11-11---|
g|--------|--------|--------|10-10-10|-10-----|---------|---10---|---10---|----10--|-----10-|
D|--------|--------|--------|--------|--------|---------|--------|--------|--------|--------|
A|--------|--------|--------|--------|--------|---------|--------|--------|--------|--------|
E|--------|--------|--------|--------|--------|---------|--------|--------|--------|--------|
11       12       13       14       15        16       17       18       19       20


?  ?  v  ? v ?  v   ?   ?   ?   ?    ?   ?  ?   ?   v ?~~~~~  X ? v  ?  v  ? v ?   ?  ?  v
e|--------|----10-10|-------|-10--13-|-10----|---------|------|-------|----------10|--------|
b|11------|11-11----|-11----|--------|----11-|---------|------|-------|11-11-11-11-|11------|
g|---10-10|---------|----10-|--------|-------|10--10-10|-10---|--10-10|------------|---10-10|
D|--------|---------|-------|--------|-------|---------|------|-------|------------|--------|
A|--------|---------|-------|--------|-------|---------|------|-------|------------|--------|
E|--------|---------|-------|--------|-------|---------|------|-------|------------|--------|
21        22      23       24      25        26     27      28           29       30


?  v  ? v ?  ?  ?  v  ? v ? v   ?  x v   ?  ?    ?   ?   ?  ?  v   ? X   ?  ?  v  ?  ?  v
e|----------10|--------|--10--10|--------|10--13-|-10-----|--------|------|13-10---|13-10---|
b|11-11-11-11-|11------|11--11--|-11-----|-------|-----11-|--------|------|------11|------11|
g|------------|---10-10|--------|-----10-|-------|--------|10-10-10|-10---|--------|--------|
D|------------|--------|--------|--------|-------|--------|--------|------|--------|--------|
A|------------|--------|--------|--------|-------|--------|--------|------|--------|--------|
E|------------|--------|--------|--------|-------|--------|--------|------|--------|--------|
31       32       33       34      35       36       37     38       39       40


?  ?  v   ?~~~~~   X 1of3   ~~~~~    X 1of2   ~~~~~~    X   ?   ?  ?  v   ?~~~~~   ? ~~~~
e|--------|--------|--------|--------|--------|---------|--------|--------|--------|-10-----|
b|--------|--------|--------|--------|--------|---------|--------|--------|-11-----|--------|
g|10-10-10|-10-----|------3|--10----|--------|--10-----|--------|10-10-10|--------|--------|
D|--------|--------|------8-|--------|------8-|---------|------8-|--------|--------|--------|
A|--------|--------|-----13-|--------|-----13-|---------|-----13-|--------|--------|--------|
E|--------|--------|--------|--------|--------|---------|--------|--------|--------|--------|
41       42       43       44       45        46      47        48       49       50

LiveInternet