AllChordsTabs.com

Zebrahead - Blue Light Special (First Version) Chords and Tabs


Artists:
Chords and Tabs » Z » Zebrahead - Blue Light Special (First Version)

Zebrahead - Blue Light Special (First Version)

Zebrahead - Blue Light Special (First Version) Chords / Tabs

Zebrahead - Blue Light Special First Version: chords and tabs for the song. Watch chords and tablatures for all songs of the singer (group) Zebrahead. Other chords and tabs for the "Blue Light Special " can find at the bottom of the page.

Tuning: Standard

Intro
e|---------------------------------------------------------------------------|
B|---------------------------------------------------------------------------|
G|7------------------------6-------------------------------------------------|
D|7----7----5----4----2----6-------------------------------------------------|
A|5----7----5----4----2----4-------------------------------------------------|
E|-----5----3----2----0------------------------------------------------------|
x8   x8   x4   x4   x4   x4

Verse
e|---------------------------------------------------------------------------|
B|---------------------------------------------------------------------------|
G|55/7-7---------------------------------------------------------------------|
D|55/7-7---------------------------------------------------------------------|
A|33/5-5---------------------------------------------------------------------|
E|---------------------------------------------------------------------------|

Chorus
e|---------------------------------------------------------------------------|
B|---------------------------------------------------------------------------|
G|7---------4----------------------------------------------------------------|
D|7----4----4----5----7------------------------------------------------------|
A|5----4----2----5----7------------------------------------------------------|
E|-----2---------3----5------------------------------------------------------|
x16  x16  x16  x8   x8

Chorus is a little weirdly formatted, but I didn't want it to be
long and confusing.

Bridge
e|---------------------------------------------------------------------------|
B|---------------------------------------------------------------------------|
G|4----6----7----9---11----15------------------------------------------------|
D|---------------------------------------------------------------------------|
A|2----4----5----7----9----13------------------------------------------------|
E|---------------------------------------------------------------------------|

Solo
e|---------------------------------------------------------------------------|
B|----------------------------7-11-------------------------------------------|
G|7-7-7-7-7-7-7h9-7-6~-6-6------------------------------------7~-7-9-9b10-9~-|
D|-------------------------/7------9-7---7--------9-7---7--------------------|
A|-------------------------------------9---9-7--------9---9-7----------------|
E|---------------------------------------------10----------------------------|

e|1010101010-1010101010-1010101010-14-15-14-12-10----------------------------|
B|1010101010-1010101010-1010101010----------------14-10----------------------|
G|---------------------------------------------------------------------------|
D|---------------------------------------------------------------------------|
A|---------------------------------------------------------------------------|
E|---------------------------------------------------------------------------|
These are 10's. not 1's and 0's

e|---------------------------------------------------------------------------|
B|12-10----10----------------------------------------------------------------|
G|------11----11-9-11-9----9------------9-11----9b10br9----------------------|
D|----------------------12---12-9-9~-12------12---------12-------------------|
A|---------------------------------------------------------------------------|
E|---------------------------------------------------------------------------|

LiveInternet