AllChordsTabs.com

Free - Alright Now (Third Version) Chords and Tabs


Artists:
Chords and Tabs » F » Free - Alright Now (Third Version)

Free - Alright Now (Third Version)

Free - Alright Now (Third Version) Chords / Tabs

Free - Alright Now Third Version: chords and tabs for the song. Watch chords and tablatures for all songs of the singer (group) Free. Other chords and tabs for the "Alright Now" can find at the bottom of the page.

-----------------------------------------------------------------------------
ALL RIGHT NOW - Free
-----------------------------------------------------------------------------

Tuning:Standard

NOTE: Times Are Approximate, Lyrics Do Not Correspond Exactly With Notes

Note: There Are A Lot Of Embellishments In This Song. Really Though, It Just
Sounds Like When He Ends A Chord By Muting It He Just Lets An Extra
Note Or Two Ring Just A Bit Longer.

IS FREE AND EASY!

NOTE: I Play D Over A |-----| But It Actually Sounds  |--2--| Or Not.
For All D's     |--3--| More Correct To Use     |--3--| Who Cares?
Cause It's      |--2--| A Standard D Instead.   |--2--|
Easier ---->    |--4--| It's Your Call. Just    |--0--|
|--0--| Replace All D Over A's  |-----|
|-----| With A Standard One --> |-----|

INTRO

00:00
e|-------------0-0---------------------000-------|
B|-2----3-2----3-3-3-3-2---2----3-2----333-333---|
G|-2----2-2----0-0-2-2-2---2----2-2----000-222-2-|
D|-2----4-2----4-4-4-4-2---2----4-2----444-444-2-|
A|-0--0-0-0--0-----0-0-0---0--0-0-0--0----000000-|
E|-----------------------------------------------|


VERSE #1

There She Stood...
00:15
e|-------------000---------------------000-------|
B|-2----3-2----333-3-3-2---2----3-2----333-333---|
G|-2----2-2----000-2-2-2---2----2-2----000-222-2-|
D|-2----4-2----444-4-4-2---2----4-2----444-444-2-|
A|-0--0-0-0--0----00-0-0---0--0-0-0--0----000000-|
E|-----------------------------------------------|

I Said Hey-ey...
00:31
e|-------------000---------------------000-------|
B|-2----3-2----333-333-2---2----3-2----333-333---|
G|-2----2-2----000-222-2---2----2-2----000-222-2-|
D|-2----4-2----444-444-2---2----4-2----444-444-2-|
A|-0--0-0-0--0----000000---0--0-0-0--0----000000-|
E|-----------------------------------------------|


CHORUS #1

All Right Now...
00:48
e|--------------------------------------------|
B|-------------------10--------------------10-|
G|-9-9-9----7~--7-7--9---9-9-9----7~--7-7--9--|
D|-7-7-7----5~--4-4--7---7-7-7----5~--4-4--7--|
A|------9-7-------------------9-7-------------|
E|--------------------------------------------|


VERSE #2

Let Me Tell...
01:06
e|-------------000---------------------0-0-------|
B|-2----3-2----333-333-2---2----3-2----3-3-3-3---|
G|-2----2-2----000-222-2---2----2-2----0-0-2-2-2-|
D|-2----4-2----444-444-2---2----4-2----4-4-4-4-2-|
A|-0--0-0-0--0-----00000---0--0-0-0--0-----0-0-0-|
E|-----------------------------------------------|

She Said Look...
01:21
e|-------------000---------------------000-------|
B|-2----3-2----333-333-2---2----3-2----333-333---|
G|-2----2-2----000-222-2---2----2-2----000-222-2-|
D|-2----4-2----444-444-2---2----4-2----444-444-2-|
A|-0--0-0-0--0----000000---0--0-0-0--0----000000-|
E|-----------------------------------------------|

She Said Love...
01:37
e|--------------000-------|
B|-2----7-------333-333-2-|
G|-2----7-6----000-222-2-|
D|-2----7-7----444-444-2-|
A|-0--0-9-7--0----000000-|
E|--------5--------------|


CHORUS #2

All Right Now...
01:46
e|---------------------------------------------|
B|-------------------10--------------------10~-|
G|-9-9-9----7~--7-7--9---9-9-9----7~--7-7--9~~-|
D|-7-7-7----5~--4-4--7---7-7-7----5~--4-4--7~~-|
A|------9-7-------------------9-7--------------|
E|---------------------------------------------|


SOLO PART 1

02:03
e|-----------------------------------------------|
B|-10-13--10-13--10-13--10-13b15--13--10--10~-13-|
G|-----------------------------------------------|
D|-----------------------------------------------|
A|-----------------------------------------------|
E|-----------------------------------------------|

02:07
e|------------------------------|
B|-15b17~r15p13h15~--13---------|
G|----------------------14-14~-|
D|------------------------------|
A|------------------------------|
E|------------------------------|

02:11
e|-----------------------------------------------|
B|-10-13--10-13--10-13--10-13b15--13--10--10~-13-|
G|-----------------------------------------------|
D|-----------------------------------------------|
A|-----------------------------------------------|
E|-----------------------------------------------|

02:14
e|-----------------------------------15b17~-|
B|-15b17~r15p13h15b17~--17b19--13-----------|
G|--------------------------------14--------|
D|------------------------------------------|
A|------------------------------------------|
E|------------------------------------------|


{BASS SOLO}


SOLO PART 2

02:27
e|---------------------------------------0~-----------0~----|
B|-------------------------------3/5~--5/7-75--5~--5/7-75-|
G|-1/2v--2/4~--2/4-42--2/4-42-----------------------------|
D|----------------------------------------------------------|
A|----------------------------------------------------------|
E|----------------------------------------------------------|

02:45
e|-----5---------------|
B|---------------------|
G|-1/2~~4b5r4-2--2/14~-|
D|---------------------|
A|---------------------|
E|---------------------|

02:53
e|-------------------------------------|
B|-------------------------------------|
G|------14-----14-----14-----14-16b18~-|
D|-14h16--14h16--14h16--14h16----------|
A|-------------------------------------|
E|-------------------------------------|

02:57
e|--------------------------------------------|
B|--------------------------------------------|
G|------14-----14-----14-----14-----14-16b18~-|
D|-14h16--14h16--14h16--14h16--14h16----------|
A|--------------------------------------------|
E|--------------------------------------------|

03:01
e|------------------------------------------------------|
B|-------------------17~---------------17~--------------|
G|-16b18-14v----14v--16b18-14v----14V--16b18-14v----14v-|
D|-----------16----------------16----------------16-----|
A|------------------------------------------------------|
E|------------------------------------------------------|

03:13
e|------17-----17-----17-----17-----17-------------20b22-20p17-20-17-20-17-|
B|-17b20--17b20--17b20--17b20--17b20--20b22~-20-17-------------------------|
G|-------------------------------------------------------------------------|
D|-------------------------------------------------------------------------|
A|-------------------------------------------------------------------------|
E|-------------------------------------------------------------------------|

03:20
e|-17------17-----17-----17-----17-----17-------|
B|----17b20--17b20--17b20--17b20--17b20--20b22~-|
G|----------------------------------------------|
D|----------------------------------------------|
A|----------------------------------------------|
E|----------------------------------------------|

03:24
e|-----------20b22-20b22-20p17-20-17~--------------------|
B|-22v-20-17--------------------------20-17-20b22-20-17~-|
G|-------------------------------------------------------|
D|-------------------------------------------------------|
A|-------------------------------------------------------|
E|-------------------------------------------------------|


BRIDGE

Oww...
03:35
e|-------------0-0---------------------000-------|
B|-2----3-2----3-3-3-3-2---2----7------333-333---|
G|-2----2-2----0-0-2-2-2---2----7-6---000-222-2-|
D|-2----4-2----4-4-4-4-2---2----7-7---444-444-2-|
A|-0--0-0-0--0-----0-0-0---0--0-9-7-0-----00000-|
E|--------------------------------5-------------|


VERSE #3

Took Her Home...
03:50
e|-------------0-0---------------------0-0-------|
B|-2----3-2----3-3-3-3-2---2----3-2----3-3-3-3---|
G|-2----2-2----0-0-2-2-2---2----2-2----0-0-2-2-2-|
D|-2----4-2----4-4-4-4-2---2----4-2----4-4-4-4-2-|
A|-0--0-0-0--0-----0-0-0---0--0-0-0--0-----0-0-0-|
E|-----------------------------------------------|

Baby, I Said Slow...
04:06
e|-------------000---------------------000-------|
B|-2----3-2----333-333-2---2----3-2----333-333---|
G|-2----2-2----000-222-2---2----2-2----000-222-2-|
D|-2----4-2----444-444-2---2----4-2----444-444-2-|
A|-0--0-0-0--0----000000---0--0-0-0--0----000000-|
E|-----------------------------------------------|


CHORUS #2

All Right Now...
04:23
e|---------------------------------------------|
B|-------------------10--------------------10~-|
G|-9-9-9----7~--7-7--9---9-9-9----7~--7-7--9~~-|
D|-7-7-7----5~--4-4--7---7-7-7----5~--4-4--7~~-|
A|------9-7-------------------9-7--------------|
E|---------------------------------------------|

All Right Now...
04:39
e|---------------------------------------------|
B|-------------------10--------------------10~-|
G|-9-9-9----7~--7-7--9---9-9-9----7~--7-7--9~~-|
D|-7-7-7----5~--4-4--7---7-7-7----5~--4-4--7~~-|
A|------9-7-------------------9-7--------------|
E|---------------------------------------------|

All Right Now...
04:54
e|---------------------------------------------|
B|-------------------10--------------------10~-|
G|-9-9-9----7~--7-7--9---9-9-9----7~--7-7--9~~-|
D|-7-7-7----5~--4-4--7---7-7-7----5~--4-4--7~~-|
A|------9-7-------------------9-7--------------|
E|---------------------------------------------|

Yea, We're So Happy...
05:10
e|---------------------------------------------|
B|-------------------10--------------------10~-|
G|-9-9-9----7~--7-7--9---9-9-9----7~--7-7--9~~-|
D|-7-7-7----5~--4-4--7---7-7-7----5~--4-4--7~~-|
A|------9-7-------------------9-7--------------|
E|---------------------------------------------|



| *  Palm Mute (Palm Mute Only The Chord Directly Above Asterisk)
| b  Bend To (Push String Up Or Down Within Same Fret To Desired Note)
| r  Release To (Let String Play From A Bent Position To An Unbent Position)
| /  Slide Up (Slide From Current Note To Next Note Or Toward Guitar Body)
|   Slide Down (Slide From Current Note To Next Note Or Toward Guitar Head)
| h  Hammer-On (Press A Finger Down Quick And Hard To Achieve Next Note)
| p  Pull-Off (Pull Off And Slightly Down To Let Next Note Ring)
| ~  Hold Note (Let Current Note Ring, Vibrato Might Be Assumed)
| +  Harmonic (Lightly Touch String Over A Sweet Spot And Pluck)
| x  Rhythmic Chuck Note (Touch Strings, Dont Push To Board, Strum)
| v  Vibrato (Bend String Up And Down Rapidly, Very Slight Bends)
=============================================================================

LiveInternet