AllChordsTabs.com

Brooks And Dunn - Indian Summer (First Version) Chords and Tabs


Artists:
Chords and Tabs » B » Brooks And Dunn - Indian Summer (First Version)

Brooks And Dunn - Indian Summer (First Version)

Brooks And Dunn - Indian Summer (First Version) Chords / Tabs

Brooks And Dunn - Indian Summer First Version: chords and tabs for the song. Watch chords and tablatures for all songs of the singer (group) Brooks And Dunn. Other chords and tabs for the "Indian Summer" can find at the bottom of the page.

Brooks & Dunn
Indian Summer

Key:
b    = bend to note in ()
bh   = bend to note in () and hold
r    = release bend
gr   = gradually release bend
[ ]  = natural harmonic
p.h. = pick harmonic
~    = vibrato
h    = hammer on
p    = pull off

INTRO-the first half is played after the first chorus
e----12h14p12h14p12----------------------12h14p12h14p12-------------------------
B-------------------12h14p12h14p12----------------------12h14p12h14p12----------
G-------------------------------------------------------------------------------
D-------------------------------------------------------------------------------
A-------------------------------------------------------------------------------
E-------------------------------------------------------------------------------

1st Verse Fills:
At 00:31                          At 00:45          At 00:54
e----12h14p12h14p12----------------------I------------------I--------------------------------------
B-------------------12h14p12h14p12h14p12-I--17(vol. swell)--I-----------[5]*-----------------------
G----------------------------------------I------------------I-------[7]----------------------------
D----------------------------------------I------------------I--------------------------------------
A----------------------------------------I------------------I---[5]--------------------------------
E----------------------------------------I------------------I--------------------------------------
*whammy or bend behind
the nut after striking
Chorus


2nd Verse Fills:
At 1:21                 At 1:26                            At 1:34
e-------------------I-------------------------I---------------------------0----------------
B-------------------I-----/7------------------I---------------------------10---------------
G---/9--/11---------I-------------------------I-------------------------9----9-------------
D-----------9/11----I---------7--9--9/11------I-------9/11~--9p7---7h9--------------------
A-------------------I-------------------------I-------------------9------------------------
E-------------------I-------------------------I--------------------------------------------

At 1:42          At 1:46            At 1:51                    At 1:53
e---------------I-----------------I------------------I-12h14p12h14p12--------------------------
B---------------I-----------------I-17(volume swell)-I----------------12h14p12h14p12-----------
G-/18---11/14--I-14p11---11--14--I------------------I----------------------------------14/16--
D---------------I-----------------I------------------I-----------------------------------------
A---------------I-----------------I------------------I-----------------------------------------
E---------------I-----------------I------------------I-----------------------------------------

Chorus

SOLO
e----------------------------------------------------------------------------------------------
B----------------------------------------------------------------------------------------------
G---------------16bgr(18)---14--16----14p.h.---------14-16-14--16bgr(18)------14--16----14~--
D----------------------------------16-------------/16---------------------------------16-------
A----------------------------------------------------------------------------------------------
E--x-17---------------------------------------------------------------------------------------

e--------0--0--0-0--0--0--0-0--0--0--0-0--0--0--0-0---0---0---0--0----0---0----0---------------
B--------3--3--3/5--5--5--5/7--7--7--7/8--8--8--8/10--10--10--10/12---12--12---12--------------
G----------------------------------------------------------------------------------------------
D----------------------------------------------------------------------------------------------
A----------------------------------------------------------------------------------------------
E----------------------------------------------------------------------------------------------

e----------------------------------------------------------------------------------------------
B----------------17--------------------------------17------------------------------------------
G----14--16--14------16br(18)--14----------14----------16br(18)14----11----9----------------
D-------------------------------------/16------16----------------------------------------------
A----------------------------------------------------------------------------------------------
E----------------------------------------------------------------------------------------------


3rd Verse fills:
At 2:40                      At 2:44                               At 2:49
e---------------------I--19(vol. swell)--17(vol. swell)--I--12h14p12h14p12----------------------
B--10(volume swell----I----------------------------------I-----------------12h14p12h14p12-------
G---------------------I----------------------------------I--------------------------------------
D---------------------I----------------------------------I--------------------------------------
A---------------------I----------------------------------I--------------------------------------
E---------------------I----------------------------------I--------------------------------------
At 2:55 start this:                                     At 3:11
e--------------------------------------------I--------------------------------------------------
B-----10--9--7--9-----10--9--7--9----10------I-------10-----------------------------------------
G------------------------------------9-------I-----9------9b(bend slowly up to 11)--------------
D------------------------------------11------I---7--------7-------------------------------------
A--------------------------------------------I--------------------------------------------------
E--------------------------------------------I----------------------------------------/17-x-17-

Chorus

Outro Guitar Solo:
e-----------------------------------------------------------------------------------------------
B-------------------------10--------------------------------------------------------------------
G-------9--11bh(13)~~~--------r11-----------------14--14/16---14-16---14--16br(18)--16--14h16~--
D--/11-------------------------------/16--14--16--------------------16--16----------------------
A-----------------------------------------------------------------------------------------------
E-----------------------------------------------------------------------------------------------

e-----------------------------------------------------------------------------------------------
B--------------17----------------------------------------------------------------17---------17--
G--14-16-14-16---16bh(18)~~----------16(18)rp14--16----14~----------14--16br(18)---16br(18)-----
D--------------------------------------------------16-----------/16-----------------------------
A-----------------------------------------------------------------------------------------------
E-----------------------------------------------------------------------------------------------

Fade out

LiveInternet