AllChordsTabs.com

Wwf - Steve Austin (First Version) Chords and Tabs


Artists:
Chords and Tabs » W » Wwf - Steve Austin (First Version)

Wwf - Steve Austin (First Version)

Wwf - Steve Austin (First Version) Chords / Tabs

Wwf - Steve Austin First Version: chords and tabs for the song. Watch chords and tablatures for all songs of the singer (group) Wwf. Other chords and tabs for the "Steve Austin" can find at the bottom of the page.

(Theme)
$!#@&*$!#@&*$!#@&*$!#@&*$!#@&*$!#@&*$!#@&*$!#@&*$!#@&*$!#@&*$!#@&$
$%     THIS PAGE HAS BEEN JOKERIZED, PROCEED WITH CAUTION!      &$
$!#@&*$!#@&*$!#@&*$!#@&*$!#@&*$!#@&*$!#@&*$!#@&*$!#@&*$!#@&*$!#@&$



#-----------------------A Jokernaut Production---------------------------------#
#I am taking my time to help some people who wanna spend time on their guitars #
# So respect that and everything should be fine *grins*                        #

=-=-=-=-=-=-=-=--=-=-=-=-=-=-=-=-=-=-=-=-=-=-=-=-=-=-=-=-=-=-=-=-=-=-=-=-=-=-=-=-=-=-=-=-=-
Instructions : Start by riff 1 and play it a few times then switch to riff 2 and play it
a couple of times too. Play riff 3 once and then the bridge. Repeat until pleased ;).
I strongly suggest you listen to the song before trying this tab. What? What? WHAT!!!! =).
=-=-=-=-=-=-=-=--=-=-=-=-=-=-=-=-=-=-=-=-=-=-=-=-=-=-=-=-=-=-=-=-=-=-=-=-=-=-=-=-=-=-=-=-=-





|--------------|
|--------------|
|--------------|
|-2-2-2-3-2-2--| Riff 1
|-2-2-2-3-2-2--|
|-------1------|

|------------------|
|------------------|
|------------------|
|-2-2-2-3-2-2-2-3-6| Riff 2
|-2-2-2-3-2-2-2-3-6|
|-------1-------1-3|


|-0h6-0h6-0h6-7-6-0h6-0h6-0h6-7-6-0h6-0h6-0h6-6-7-0h6-0h6-0h6-6-7-7-7|
|--------------------------------------------------------------------|
|--------------------------------------------------------------------|
|--------------------------------------------------------------------| Riff 3
|--------------------------------------------------------------------|
|-0h6-0h6-0h6-7-6-0h6-0h6-0h6-7-6-0h6-0h6-0h6-6-7-0h6-0h6-0h6-6-7-7-7|

|-7-7-7-7-9-7-7-10-7-7-9-7-7-7-7-7-7-7-7-7-7-9-7-7-10-7-7-7-7-9-7|
|----------------------------------------------------------------|
|----------------------------------------------------------------|
|----------------------------------------------------------------|  Bridge
|----------------------------------------------------------------|
|----------------------------------------------------------------|

LiveInternet