AllChordsTabs.com

Misc Soundtrack - Bbc Snooker (First Version) Chords and Tabs


Artists:
Chords and Tabs » M » Misc Soundtrack - Bbc Snooker (First Version)

Misc Soundtrack - Bbc Snooker (First Version)

Misc Soundtrack - Bbc Snooker (First Version) Chords / Tabs

Misc Soundtrack - Bbc Snooker First Version: chords and tabs for the song. Watch chords and tablatures for all songs of the singer (group) Misc Soundtrack. Other chords and tabs for the "Bbc Snooker" can find at the bottom of the page.

(Theme)
BBC Snooker Theme Song.


This is the BBC snooker theme song.
A cool tune that’s good to impress, at the same time easy!

Best played on a Les Paul with slight fuzz distortion add a little reverb, switch to Treble humbucker pickup and turn tone knobs half way down.

I don’t know the exact timing but just play it as fast as you want.

This isn’t a 100% accurate Tab but as close as I could get.



|-------------------------------------------------------|
|-------------------------------------------------------|
|----------------------7(s)5--x-x------ 7-x-------------|
|-5s7--x-x--7-7--x--7—-7(s)5--x-x---5-x-7-x-7-x-x--7----|
|-5s7--x-x--7-7--x--7—-5(s)3--x-x---5-x-5—x-7-x-x--7----|
|-3s5--x-x--5-5--x--5---------------3-x-----5-x-x--5----|

|-------------------------------------------------------|
|-------------------------------------------------------|
|----------------------7(s)5--x-x------ 7-x-------------|
|-5s7--x-x--7-7--x--7—-7(s)5--x-x---5-x-7-x-7-x-x--7----|
|-5s7--x-x--7-7--x--7—-5(s)3--x-x---5-x-5—x-7-x-x--7----|
|-3s5--x-x--5-5--x--5---------------3-x-----5-x-x--5----|


|---------------------------------------------------------------------|
|---------------------------------------------------------------------|
|----------------------3-------------2h4-4b5-4p2-----7----------------|
|-2-2-2-2-1p0--------3-3-2--------2h4-----------4--5-7-7-x-x-7--------|
|------------3-2p0---3-1-2---0-2h3-----------------5-5-7-x-x-7--------|
|-----------------3--1---0-------------------------3---5-x-x-5--------|

The next part can be played in a number of ways, I’ll show 2 ways and you can decide which you prefer.

1)

|---------------------------------------------------------------------|
|-----10------10-----10-----10-----10-----10-----10-----10------10-10-|
|-9-11----9-11---9-11---9-11---9-11---9-11---9-11---9-11---9-11-------|
|---------------------------------------------------------------------|
|---------------------------------------------------------------------|
|---------------------------------------------------------------------|

|---------------------------------------------------------------------|
|-12-12b13b12-10--------10-10-10~--12-10-12b13-12b13-12-10-------10---|
|---------------11-9-11-----------------------------------11-9-11-----|
|---------------------------------------------------------------------|
|---------------------------------------------------------------------|
|---------------------------------------------------------------------|





|---------------------------------------------------------------------|
|-12p10////////-------------------------------------------------------|
|---------------------------------------------------------------------|
|---------------------------------------------------------------------|
|---------------------------------------------------------------------|
|---------------------------------------------------------------------|

ALT 2)

|-0-2-5-0-2-5-0-2-5-0-2-5-0-2-5-0-2-5-0-2-5-0-2-5-5--7-7b8b7-5------5-|
|-------------------------------------------------------------7-5-7---|
|---------------------------------------------------------------------|
|---------------------------------------------------------------------|
|---------------------------------------------------------------------|
|---------------------------------------------------------------------|

|-5-5--7-5-7-7b8-7-5------5-5-5//////---------------------------------|
|-------------------7-5-7---------------------------------------------|
|---------------------------------------------------------------------|
|---------------------------------------------------------------------|
|---------------------------------------------------------------------|
|---------------------------------------------------------------------|

Then back to this

|---------------------------------------------------------------------|
|---------------------------------------------------------------------|
|----------------------3-------------2h4-4b5-4p2-----7----------------|
|-2-2-2-2-1p0--------3-3-2--------2h4-----------4--5-7-7-x-x-7--------|
|------------3-2p0---3-1-2---0-2h3-----------------5-5-7-x-x-7--------|
|-----------------3--1---0-------------------------3---5-x-x-5--------|

|---------------------------------------------------------------------|
|---------------------------------------------------------------------|
|---------------------------------------------------------------------|
|-2-2-2---------------------------------------------------------------|
|-2-2-2---------------------------------------------------------------|
|-0-0-0 Keep this part going for as long as you wish before you come to the end

|-------------------------------------------------------|
|-------------------------------------------------------|
|----------------------7(s)5--x-x------ 7-x-------------|
|-5s7--x-x--7-7--x--7—-7(s)5--x-x---5-x-7-x-7-x-x--7----|
|-5s7--x-x--7-7--x--7—-5(s)3--x-x---5-x-5—x-7-x-x--7----|
|-3s5--x-x--5-5--x--5---------------3-x-----5-x-x--5----|

|-------------------------------------------------------|
|-------------------------------------------------------|
|----------------------7(s)5--x-x------ 7-x-------------|
|-5s7--x-x--7-7--x--7—-7(s)5--x-x---5-x-7-x-7-x-x--7----|
|-5s7--x-x--7-7--x--7—-5(s)3--x-x---5-x-5—x-7-x-x--7----|
|-3s5--x-x--5-5--x--5---------------3-x-----5-x-x--5----|




|---------------------------------------------------------------------|
|---------------------------------------------------------------------|
|----------------------3-------------2h4-4b5-4p2-----7----------------|
|-2-2-2-2-1p0--------3-3-2--------2h4-----------4--5-7-7-x-x-7--------|
|------------3-2p0---3-1-2---0-2h3-----------------5-5-7-x-x-7--------|
|-----------------3--1---0-------------------------3---5-x-x-5--------|

|---------------------------------------------------------------------|
|---------------------------------------------------------------------|
|---------------------------------------------------------------------|
|-2-2-2---------------------------------------------------------------|
|-2-2-2---------------------------------------------------------------|
|-0-0-0 Keep this part going for as long as you wish before you come to the end

|---------------------------------------------------------------------|
|---------------------------------------------------------------------|
|-------7-7-7---------------------------------------------------------|
|-7-x-x-7-7-7-7-------------------------------------------------------|
|-7-x-x-5-5-5-7-------------------------------------------------------|
|-5-x-x-------5-------------------------------------------------------|

LiveInternet