AllChordsTabs.com

Cold Chisel - When The War Is Over (First Version) Chords and Tabs


Artists:
Chords and Tabs » C » Cold Chisel - When The War Is Over (First Version)

Cold Chisel - When The War Is Over (First Version)

Cold Chisel - When The War Is Over (First Version) Chords / Tabs

Cold Chisel - When The War Is Over First Version: chords and tabs for the song. Watch chords and tablatures for all songs of the singer (group) Cold Chisel. Other chords and tabs for the "When The War Is Over" can find at the bottom of the page.

A                 C#m                 D     E
Ain't nobody gonna steal this heart away
A                 C#m                 D     E
Ain't nobody gonna steal this heart away


A               C#m               D         E
When the war is over Got to get away
A               C#m               D         E
Pack my bag to no place in no time, no day
A
You and I we used each other's shoulder
Bm
Still so young but somehow so much older
D       E     D                E      A
How can I go home and not get blown away

Solo: Verse

e----------------------------------------------------------------------|
B----------------------------------------------------------------------|
G----------------------------------------------9-9--11--9h11p9---------|
D--6-7--4-6--2-4-4---6-7--4-6--2-4-4----4s11---------------------------|
A----------------------------------------------------------------------|
E----------------------------------------------------------------------|

e--------------------------------------------------------------12------|
B-------------------12-----12------------------12---14----14-------14--|
G--------------11---------------11---9----14---------------------------|
D-11------9------------------------------------------------------------|
A------9---------------------------------------------------------------|
E----------------------------------------------------------------------|

e---------------12----------14p12--------------------------------------|
B--14-14-12-14------14-14-----------14---12h14p12--10---10h12p10-------|
G-----------------------------------------------------------------11---|
D----------------------------------------------------------------------|
A----------------------------------------------------------------------|
E----------------------------------------------------------------------|


F#m                C#m
You and I had our sights set On something
D                            A
Hope this doesn't mean our days are numbered
C#m              D                  E
I got plans for more than a wanted man
F#m             C#m
All around this chaos and madness
D                            A
Can't help feeling nothing more than sadness
C#m              D                 E
Only choice to face it the best I can


When the war is over Got to start again
Try to hold a trace of what it was back then
You and I we sent each other stories
Just a page I'm lost in all its glory
How can I go home and not get blown away

Ain't nobody gonna steal this heart away
Ain't nobody gonna steal this heart away
Ain't nobody gonna steal this heart away

E--------------------------------------------|
B---------7------7-9---7-9-10---9-10-12--10--|
G---7-9------9-------------------------------|
D--------------------------------------------|
A--------------------------------------------|
E--------------------------------------------|


Ain't nobody gonna steal this heart away
Ain't nobody gonna steal this heart away
Ain't nobody gonna steal this heart away

e ----------------------------------------|
B --------------15-14-14-12-10-12-10-9-10-|
G -----------14---------------------------|
D -----12-14------------------------------|
A ----------------------------------------|
E ----------------------------------------|

This is my first tab, but I think its pretty accurate.

LiveInternet