AllChordsTabs.com

Donovan - The Trip (First Version) Chords and Tabs


Artists:
Chords and Tabs » D » Donovan - The Trip (First Version)

Donovan - The Trip (First Version)

Donovan - The Trip (First Version) Chords / Tabs

Donovan - The Trip First Version: chords and tabs for the song. Watch chords and tablatures for all songs of the singer (group) Donovan. Other chords and tabs for the "The Trip" can find at the bottom of the page.

THE TRIP      (Donovan)


guitar (Capo 1)
INTRO
E7
Q     Q    Q    Q       Q    E  E  E  E  Q       Q    Q    Q    Q
E||--------0---------0----|-------0--0-----0--0----|-------0---------0----|
B||--------3---------3----|-------3--3-----3--3----|-------3---------3----|
G||--------1---------1----|-------1--1-----1--1----|-------1---------1----|
D||--2--------------------|--2---------------------|--2-------------------|
A||-------------2---------|------------------------|----------------------|
E||-----------------------|------------------------|------------0---------|


Q    E  E  E  E  Q       Q    Q    Q    Q       Q    E  E  E  E  Q
-------0--0-----0--0----|-------0---------0----|-------0--0-----0--0----|
-------3--3-----3--3----|-------3---------3----|-------3--3-----3--3----|
-------1--1-----1--1----|-------1---------1----|-------1--1-----1--1----|
--2---------------------|--2-------------------|--2---------------------|
------------------------|------------2---------|------------------------|
------------------------|----------------------|------------------------|


VERSE
Q    Q    Q    Q         Q     E  E  E  E  Q       Q    Q    Q    Q
-------0---------0----||---------0--0-----0--0----|-------0---------0----|
-------3---------3----||---------3--3-----3--3----|-------3---------3----|
-------1---------1----||*--------1--1-----1--1----|-------1---------1----|
--2-------------------||*--2----------------------|--2-------------------|
----------------------||--------------------------|------------2---------|
------------0---------||--------------------------|----------------------|


Q    E  E  E  E  Q       Q    Q    Q    Q       Q    E  E  E  E  Q
-------0--0-----0--0----|-------0---------0----|-------0--0-----0--0----|
-------3--3-----3--3----|-------3---------3----|-------3--3-----3--3----|
-------1--1-----1--1----|-------1---------1----|-------1--1-----1--1----|
--2---------------------|--2-------------------|--2---------------------|
------------------------|----------------------|------------------------|
------------------------|------------0---------|------------------------|


Q    Q    Q    Q       Q    E  E  E  E  Q       Q    Q    Q    Q
-------0---------0----|-------0--0-----0--0----|-------0---------0----|
-------3---------3----|-------3--3-----3--3----|-------3---------3----|
-------1---------1----|-------1--1-----1--1----|-------1---------1----|
--2-------------------|--2---------------------|--2-------------------|
------------2---------|------------------------|----------------------|
----------------------|------------------------|------------0---------|


Q    E  E  E  E  Q       Q    Q    Q    Q       Q    E  E  E  E  Q
-------0--0-----0--0----|-------0---------0----|-------0--0-----0--0----|
-------3--3-----3--3----|-------3---------3----|-------3--3-----3--3----|
-------1--1-----1--1----|-------1---------1----|-------1--1-----1--1----|
--2---------------------|--2-------------------|--2---------------------|
------------------------|------------2---------|------------------------|
------------------------|----------------------|------------------------|


Q    Q    Q    Q       Q    E  E  E  E  Q       Q    Q    Q    Q
-------0---------0----|-------0--0-----0--0----|-------0---------0----|
-------3---------3----|-------3--3-----3--3----|-------3---------3----|
-------1---------1----|-------1--1-----1--1----|-------1---------1----|
--2-------------------|--2---------------------|--2-------------------|
----------------------|------------------------|------------2---------|
------------0---------|------------------------|----------------------|


Q    E  E  E  E  Q       Q    Q    Q    Q       Q    E  E  E  E  Q
-------0--0-----0--0----|-------0---------0----|-------0--0-----0--0----|
-------3--3-----3--3----|-------3---------3----|-------3--3-----3--3----|
-------1--1-----1--1----|-------1---------1----|-------1--1-----1--1----|
--2---------------------|--2-------------------|--2---------------------|
------------------------|----------------------|------------------------|
------------------------|------------0---------|------------------------|


B7
Q    Q    Q    Q       Q    Q    Q    Q       Q    Q    Q    Q
-------2---------2----|-------2---------2----|-------2---------2----|
-------0---------0----|-------0---------0----|-------0---------0----|
-------2---------2----|-------2---------2----|-------2---------2----|
-------1---------1----|-------1---------1----|-------1---------1----|
--2-------------------|--2-------------------|--2-------------------|
------------2---------|------------2---------|------------2---------|


Q    Q    Q    Q       Q    Q    Q    Q       Q    E  E  E  E  Q
-------2---------2----|-------0---------0----|-------0--0-----0--0----|
-------0---------0----|-------3---------3----|-------3--3-----3--3----|
-------2---------2----|-------1---------1----|-------1--1-----1--1----|
-------1---------1----|--2-------------------|--2---------------------|
--2-------------------|------------2---------|------------------------|
------------2---------|----------------------|------------------------|


CHORUS
Q    Q    Q    Q       Q    E  E  E  E  Q       Q      Q    Q    Q
-------0---------0----|-------0--0-----0--0----|---------0---------0----|
-------3---------3----|-------3--3-----3--3----|---------3---------3----|
-------1---------1----|-------1--1-----1--1----|---------1---------1----|
--2-------------------|--2---------------------|--2---------------------|
----------------------|------------------------|--------------2---------|
------------0---------|------------------------|------------------------|


Q    E  E  E  E  Q       Q    Q    Q    Q       Q    E  E  E  E  Q
-------0--0-----0--0----|-------0---------0----|-------0--0-----0--0----|
-------3--3-----3--3----|-------3---------3----|-------3--3-----3--3----|
-------1--1-----1--1----|-------1---------1----|-------1--1-----1--1----|
--2---------------------|--2-------------------|--2---------------------|
------------------------|----------------------|------------------------|
------------------------|------------0---------|------------------------|


Q    Q    Q    Q       Q    E  E  E  E  Q       Q    Q    Q    Q
-------0---------0----|-------0--0-----0--0----|-------0---------0----|
-------3---------3----|-------3--3-----3--3----|-------3---------3----|
-------1---------1----|-------1--1-----1--1----|-------1---------1----|
--2-------------------|--2---------------------|--2-------------------|
------------2---------|------------------------|----------------------|
----------------------|------------------------|------------0---------|


Q    E  E  E  E  Q     5x  W
-------0--0-----0--0-----||--0----------------||
-------3--3-----3--3-----||--3----------------||
-------1--1-----1--1----*||--1----------------||
--2---------------------*||--2----------------||
-------------------------||--2----------------||
-------------------------||--0----------------||




Duration Legend
---------------
W - whole
H - half
Q - quarter
E - 8th
S - 16th
T - 32nd
X - 64th
. - note dotted
|-n-|  - n-tuplets


Tablature Legend
----------------
L - tied note
x - dead note
g - grace note
(n) - ghost note
> - accentuded note
NH - natural harmonic
AH - artificial harmonic
TH - tapped harmonic
SH - semi harmonic
PH - pitch harmonic
h - hammer on
p - pull off
b - bend
br - bendRelease
pb - preBend
pbr - preBendRelease
brb - bendReleaseBend

/ - tremolo bar dip

 - tremolo bar dive
-/n - tremolo bar Release up
/n - tremolo bar inverted dip
/n - tremolo bar return
-
 - tremolo bar Release down
S - shift slide
s - legato slide
/ -  slide into from below or out of upwards
 -  slide into from above or out of downwards
~ - vibrato
W - wide vibrato
tr - trill
TP - tremolo picking
T - tapping
S - slap
P - pop
< - fade in
^ - brush up
v - brush down

LiveInternet